Аккорды America - Cornwall Blank

Добавлено: @romashka
Дата добавления: 31 Января 2024г.
Рейтинг:
0.0
Просмотров: 98
Standard tune; Key : D
Note: A 12-string guitar would be more appropriate
      The [Intro] is the main verse riff as well

Chords used:
Bsus4       - x24400
Bsus4/A     - x04400
Bsus4/F#    - 2x4400
F#m11       - 244200
G6          - 355430
Esus2       - 079977
Em          - 079987
Bm          - 799777

[Intro]
e|-0-------------------|-0-------------------|-0-------------------|-0-------------------|
B|-0-----0----------0--|-0-----0----------0--|-0-----0----------0--|-0-----0----------0--|
G|-4-----4--4-------4--|-4-----4--4-------4--|-4-----4--4-------4--|-4-----4--4-------4--|
D|-4---4-4--4-----4-4--|-4---4-4--4-----4-4--|-4---4-4--4-----4-4--|-4---4-4--4-----4-4--|
A|-2---2-2--2-0~--x-0--|-2---2-2--2-0~--x-0--|-2---2-2--2-0~--x-0--|-2---2-2--2-0~--x-0--|
E|----------------2----|----------------2----|----------------2----|----------------2----|

[Verse 1]
Bsus4       Bsus4/A     Bsus4/F#
  I've been down to the water
Bsus4          Bsus4/A     Bsus4/F#
  I've been on top of the  world
Bsus4             Bsus4/A     Bsus4/F#
  Somebody should come and    see me
Bsus4             Bsus4/A      Bsus4/F#
  Somebody should give me the  word

[Chorus]
F#m11
  'Cause I don't know how many more
G6
   I don't know how many more
F#m11
   I don't know how many more to see.

[Interlude]
e|-0-------------------|-0-------------------|-0-------------------|-0-------------------|
B|-0-----0----------0--|-0-----0----------0--|-0-----0----------0--|-0-----0----------0--|
G|-4-----4--4-------4--|-4-----4--4-------4--|-4-----4--4-------4--|-4-----4--4-------4--|
D|-4---4-4--4-----4-4--|-4---4-4--4-----4-4--|-4---4-4--4-----4-4--|-4---4-4--4-----4-4--|
A|-2---2-2--2-0~--x-0--|-2---2-2--2-0~--x-0--|-2---2-2--2-0~--x-0--|-2---2-2--2-0~--x-0--|
E|----------------2----|----------------2----|----------------2----|----------------2----|

[Verse 2]
Bsus4            Bsus4/A      Bsus4/F#
  Sometimes the free thoughts clash
Bsus4         Bsus4/A         Bsus4/F#
  Sometimes I see through the grass
Bsus4           Bsus4/A        Bsus4/F#  Bsus4  Bsus4/A  Bsus4/F#
  Sometime the light begins to dim
Bsus4       Bsus4/A        Bsus4/F#
  Somebody should come and be me
Bsus4            Bsus4/A   Bsus4/F#
  Somebody should come and free me

[Chorus]
F#m11
  'Cause I don't know how many more (many more)
G6
   I don't know how many more (many more)
F#m11
   I don't know how many more to see.

[Solo]
Bsus4  F#m11  G6  F#m11
Bsus4  F#m11  G6  F#m11

[Interlude]
e|-0-------------------|-0-------------------|-0-------------------|-0-------------------|
B|-0-----0----------0--|-0-----0----------0--|-0-----0----------0--|-0-----0----------0--|
G|-4-----4--4-------4--|-4-----4--4-------4--|-4-----4--4-------4--|-4-----4--4-------4--|
D|-4---4-4--4-----4-4--|-4---4-4--4-----4-4--|-4---4-4--4-----4-4--|-4---4-4--4-----4-4--|
A|-2---2-2--2-0~--x-0--|-2---2-2--2-0~--x-0--|-2---2-2--2-0~--x-0--|-2---2-2--2-0~--x-0--|
E|----------------2----|----------------2----|----------------2----|----------------2----|

[Bridge]
Esus2                                   Bsus4
  Oh darlin', darlin', I always want to      see you
Esus2                                   Bsus4
  Oh darlin', darlin', I always want to      see you

[Interlude]
e|-0-------------------|-0-------------------|-0-------------------|-0-------------------|
B|-0-----0----------0--|-0-----0----------0--|-0-----0----------0--|-0-----0----------0--|
G|-4-----4--4-------4--|-4-----4--4-------4--|-4-----4--4-------4--|-4-----4--4-------4--|
D|-4---4-4--4-----4-4--|-4---4-4--4-----4-4--|-4---4-4--4-----4-4--|-4---4-4--4-----4-4--|
A|-2---2-2--2-0~--x-0--|-2---2-2--2-0~--x-0--|-2---2-2--2-0~--x-0--|-2---2-2--2-0~--x-0--|
E|----------------2----|----------------2----|----------------2----|----------------2----|

[Verse 3]

Bsus4       Bsus4/A     Bsus4/F#
  I cannot learn much   more life
Bsus4      Bsus4/A    Bsus4/F#
  I cannot see much   more
Bsus4             Bsus4/A       Bsus4/F#
  Somebody should stop the new sight
Bsus4             Bsus4/A     Bsus4/F#
  Somebody should close the   door

[Chorus]
F#m11
  'Cause I don't know how many more (many more)
G6
   I don't know how many more (many more)
F#m11
   I don't know how many more to

[Solo]
   Bsus4  F#m11  G6  F#m11  Bsus4  F#m11  G6  F#m11
...see...

[Break]
Em

[Interlude 2]
Em  Bm   5x

[Coda]
Em                     Bm
 Wrapped in a blanket, lyin' in the snow
Em                Bm         Em         Bm
 Feelin' like the men felt a long time ago
Em                  Bm             Em               Bm
 Goin' to find me a home, goin' to build it with my hands
Em             Bm
 Can't you see there's food to be grown
       Em                 Bm
Got to dig up, dig up the land.

[Outro]
Em  Bm    8x  
Но если и музыка нас оставит, что будет тогда с нашим миром? (Гоголь)
Мы стремимся к созданию контента, соответствующего всем нормам законодательства и уважающего интеллектуальную собственность. Мы также придаем большое значение тому, чтобы не задеть никого и не оскорбить чьи-либо чувства. Если у вас есть вопросы или претензии по размещенному материалу, пожалуйста, сообщите нам об этом.
Шрифт
-
0
+
Прокрутка
-
0
+
Стоп
Наверх