Аккорды Андрей Державин - Весёлые качели

Добавлено: @romashka
Дата добавления: 29 Апреля 2019г.
Рейтинг:
0.0
Просмотров: 80
Транспонировать - +
Вступление: Fm C7 F A#m D# G# C7 Fm }x2

e|-8--9-8--8-9-8--8-9-8-11-9-6--8-6-9-8-----------------------|
B|--------------------------------------11-9-8----------------|
G|---------------------------------------------10-10-9-7-9-10-|
D|------------------------------------------------------------|
A|------------------------------------------------------------|
E|------------------------------------------------------------|

e|-8--9-8--8-9-8--8-9-8-11-9-6--8-8-6-9-8-----------------------|
B|----------------------------------------11-9-8----------------|
G|-----------------------------------------------10-10-9-7-9-10-|
D|--------------------------------------------------------------|
A|--------------------------------------------------------------|
E|--------------------------------------------------------------|

Fm        A#m       C7
  Вот дела, вот это вечер,
Fm    D#m G#  
  Я иду, улыбки не тая,
F           A#m     D#          G#
  Ты правда помнишь все наши встречи,
A#m            Fm          C7      Fm
  Ну что же, здравствуй, хорошая моя.

  Fm         C7         F       A#m
Туда-сюда, туда-сюда, которую неделю
  D#           G#       C7      Fm
Качают нас без устали веселые качели,
  Fm         C7         F              A#m
Туда-сюда, туда-сюда, качай, качай, подруга,
  D#         G#       C7            Fm
Бывали дни веселые, любили мы друг друга.

Fm           A#m        C7   
  Жить бы нам с тобой у моря,
Fm       D#m    G#
  Там теплей и снега нет совсем,
F              A#m  D#       G#
  Любить друг друга, не зная горя,
A#m      Fm     C7          Fm
  И не делить тебя уже ни с кем.

  Fm         C7         F       A#m
Туда-сюда, туда-сюда, которую неделю
  D#           G#       C7      Fm
Качают нас без устали веселые качели,
  Fm         C7         F              A#m
Туда-сюда, туда-сюда, качай, качай, подруга,
  D#         G#       C7            Fm
Бывали дни веселые, любили мы друг друга.

(Модуляция на полутон)

Проигрыш: F#m C#7 F# Bm E A C#7 F#m }x2

e|-10-9-10-9-10-9--10-9-12-10-7--9-9-7-10-9--------------------------|
B|------------------------------------------12-10-9---------------10-|
G|--------------------------------------------------11-11-10-9-10----|
D|-------------------------------------------------------------------|
A|-------------------------------------------------------------------|
E|-------------------------------------------------------------------|

e|-10-9-10-9-10-9--10-9-12-10-7--9-7-10-9--------------------------|
B|----------------------------------------12-10-9------------------|
G|------------------------------------------------11-11-10-9-10-11-|
D|-----------------------------------------------------------------|
A|-----------------------------------------------------------------|
E|-----------------------------------------------------------------|

F#m            Bm       C#7 
  Есть вопрос, но нет ответа,
F#m      Em      A         
  Ты улыбнешься, и уйдут года,
F#         Bm    E        A
  И все вернется, и будет лето,
Bm      F#m     C#7           F#m
  И мы опять придем с тобой сюда.

  F#m        C#7        F#      Bm
Туда-сюда, туда-сюда, которую неделю
  E            A        C#7     F#m
Качают нас без устали веселые качели,
  F#m        C#7        F#             Bm
Туда-сюда, туда-сюда, качай, качай, подруга,
  E          A        C#7           F#m
Бывали дни веселые, любили мы друг друга.

  F#m        C#7        F#      Bm
Туда-сюда, туда-сюда, которую неделю
  E            A        C#7     F#m
Качают нас без устали веселые качели,
  F#m        C#7        F#             Bm
Туда-сюда, туда-сюда, качай, качай, подруга,
  E          A        C#7           F#m
Бывали дни веселые, любили мы друг друга.

Проигрыш: F#m C#7 F# Bm E A C#7 F#m }x2

e|-10-9-10-9-10-9--10-9-12-10-7--9-7-10-9--------------------------|
B|----------------------------------------12-10-9------------------|
G|------------------------------------------------11-11-10-8-10-11-|
D|-----------------------------------------------------------------|
A|-----------------------------------------------------------------|
E|-----------------------------------------------------------------|

e|-10-9-10-9-10-9--10-9-12-10-7--9-7-10-9-------10--12-13-14-15-|
B|----------------------------------------12-10-----------------|
G|--------------------------------------------------------------|
D|--------------------------------------------------------------|
A|--------------------------------------------------------------|
E|--------------------------------------------------------------|
comments powered by Disqus
Наверх