Аккорды Angie Mcmahon - Letting Go

Добавлено: @romashka
Дата добавления: 03 Июня 2024г.
Рейтинг:
0.0
Просмотров: 11
[Chords]
   G C/G D/A Em Em7
e|-3--0--0---0--0-|
B|-0--1--3---0--0-|
G|-0--0--0---0--0-|
D|-0--2--4---2--0-|
A|-2--3--5---2--2-|
E|-3--3--5--------|

[Intro]
G
G C/G D/A C/G

[Verse 1]
G                  C/G                                     D/A
  I might've spent six months lying on my living room floor
                Em                    Em7           C/G
I might've been sick, then well, then sick some more
D/A          Em           C/G
  I might be prouder of me
D/A      C/G            G
  Than I ever have been

[Chorus]
                     Em7         C/G
I've been learning about letting go
G                 Em7 C/G      N.C.
  How to do it without my claws scratching the surfaces
G                      Em7 C/G                                D/A
  I've been learning about wasting time and closing some doors
               C/G           G
Hoping to open more down the line

[Solo]
e|-------------------------------------------------|
B|-------------------------------------------------|
G|--------------------------------7--------7-------|
D|---8-10-8-10----8-10-8-10--8---8-8-10---8-8-10-8-|
A|-10-----------10-------------10-------10---------|
E|-------------------------------------------------|

[Verse 2]
G             C/G                             D/A
  I knew from miles away that I would detonate
             Em              Em7         C/G
I tried some magic tricks to skip my fate
    D/A              Em      D/A C/G
And then gave up the ball as a defender
              D/A
The trick was simply to surrendеr

[Chorus]
G                     Em7         C/G
  I've been learning about letting go
G                 Em7 C/G      N.C.
  How to do it without my claws scratching the surfaces
G                      Em7 C/G                                D/A
  I've been learning about wasting time and closing some doors
               C/G           G
Hoping to open more down the line

[Solo]
e|-------------------------------------------------|
B|-------------------------------------------------|
G|--------------------------------7--------7-------|
D|---8-10-8-10----8-10-8-10--8---8-8-10---8-8-10-8-|
A|-10-----------10-------------10-------10---------|
E|-------------------------------------------------|

[Outro]
G
  It's okay, it's okay
C/G
  Make mistakes, make mistakes
G
  It's okay, it's okay
C/G
  Make mistakes, make mistakes
G                 Em7
  It's okay, it's okay
C/G
  Make mistakes, make mistakes
D/A
  It's okay, it's okay
C/G
  Make mistakes, make mistakes
G                 Em7
  It's okay, it's okay
C/G
  Make mistakes, make mistakes
G                 Em7
  It's okay, it's okay
C/G
  Make mistakes, make mistakes
G                 Em7
  It's okay, it's okay
C/G
  Make mistakes, make mistakes
D/A
  Make mistakes, make mistakes
C/G
Но если и музыка нас оставит, что будет тогда с нашим миром? (Гоголь)
Мы стремимся к созданию контента, соответствующего всем нормам законодательства и уважающего интеллектуальную собственность. Мы также придаем большое значение тому, чтобы не задеть никого и не оскорбить чьи-либо чувства. Если у вас есть вопросы или претензии по размещенному материалу, пожалуйста, сообщите нам об этом на указанный адрес электронной почты: [email protected].
Шрифт
-
0
+
Прокрутка
-
0
+
Стоп
Наверх