Аккорды «Anti-Flag»

Anti-Flag
Группа образовалась в 1988 году, в городе Питтсбург, штат Пенсильвания. "Дефис между Anti и Flag мог бы означать что-то вроде вызова, нарочитое искажение английского языка, но на деле мы просто не знали правильное употребление дефиса" © Джастин. Первоначальный состав: Джастин Сэйн (Justin Sane), Пэт Тетик (Pat Thetic), Люси Фестер (Lucy Fester). Группа просуществовала недолго, до 1989 года, с постоянной сменой участников, и успела дать всего один концерт, после чего последовал перерыв. В… Читать полностью... Группа образовалась в 1988 году, в городе Питтсбург, штат Пенсильвания. "Дефис между Anti и Flag мог бы означать что-то вроде вызова, нарочитое искажение английского языка, но на деле мы просто не знали правильное употребление дефиса" © Джастин. Первоначальный состав: Джастин Сэйн (Justin Sane), Пэт Тетик (Pat Thetic), Люси Фестер (Lucy Fester). Группа просуществовала недолго, до 1989 года, с постоянной сменой участников, и успела дать всего один концерт, после чего последовал перерыв. В 1993 году Джастин Сэйн и Пэт Тетик собрали очередной состав группы. В 1996м вышел дебютный альбом Anti-Flag - Die for the Government. Летом того же года из-за творческих разногласий группу покинул басист Энди Райт (Andy Wright). После нескольких перестановок в составе, в 1999 году Anti-Flag приобрёл свой классический вид: Джастин, Пэт и два Криса — Баркер (Chris Barker) и Хед (Chris Head). В 1999 году вышел второй альбом — A New Kind of Army. В текстах затрагивались проблемы расизма, коррупции, полицейского произвола и прочие остросоциальные темы. Молодую группу заметили Rage Against The Machine , и предложили отыграть вместе несколько концертов. В 2000 году группу приглашают принять участие в Vans Warped Tour. Во время тура парни сводят знакомство с Майком (Fat Mike) из группы NOFX, который к тому же являлся владельцем рекорд-лейбла "Fat Wreck Chords", и несколько следующих альбомов выходят на нём. Кроме того, Anti-Flag создаёт свой собственный рекорд-лейбл "A-F Records", где в разное время записывались такие панк-коллективы, как The Code, Much the Same, The Vacancy, The Unseen, Modey Lemon и другие. В 2001 году Anti-Flag выпускает альбом Underground Network. Продюсер альбома — известный человек в мире панк-рока Масс Джиорджини (Mass Giorgini). Помимо уже привычных «наездов» на нео-нацистов, в альбоме присутствует критика внешней политики Соединённых Штатов. В 2002 году на собственном лейбле группы A-F Records выходит альбом Mobilize, содержащий студийные и концертные записи. Годом позже группа выпускает очередной альбом — The Terror State. Основное содержание текстов — жёсткая критика политики администрации Джорджа Буша. Тогда же ряд музыкальных сетей отказывается распространять альбомы группы, обвиняя её в антиамериканизме и непатриотичности. Лирика Anti-Flag поддерживает различные политические идеи левого толка и занимает решительную позицию в борьбе против фашизма и национализма, а также поддерживают все, что касается панк сцены и романтики. В своих песнях музыканты настойчиво утверждали, что американская система милитаризма и капитализма губительна для мира в целом. Кроме этого, Anti-Flag сотрудничает с peta2 , участники группы веганы и вегетарианцы. Кроме того они являются противниками гомофобии, курения, алкоголя и наркотиков. 8 октября 2004 года, член Палаты Представителей Джим Макдермотт (Jim McDermott) в своей речи поблагодарил Anti-Flag за то, что они способствовали приобщению молодежи к политике. Дискография: Альбомы 1996 — Die for the Government (New Red Archives) 1998 — Their System Doesn’t Work for You (A-F Records) 1999 — A New Kind of Army (Go-Kart Records/A-F Records) 2001 — Underground Network (Fat Wreck Chords) 2002 — Mobilize (A-F Records) 2003 — The Terror State (Fat Wreck Chords) 2006 — For Blood and Empire (RCA Records) 2007 — A Benefit For Victims Of Violent Crime' (RCA Records) 2008 — The Bright Lights of America (RCA Records) 2009 — The People Or The Gun 2011 — The General Strike DVD 2004 — Death of a Nation (A-F Records) Видеоклипы 2003 — «Turncoat» (The Terror State) 2004 — «Death of a Nation» (The Terror State) 2004 — «Post-War Breakout» (The Terror State) 2004 — «Protest Song» 2006 — «The Press Corpse» (For Blood and Empire) 2006 — «1 Trillion Dollar$» (For Blood and Empire) 2006 — «This Is the End (for You My Friend)» (For Blood and Empire) 2006 — «War Sucks, Let’s Party» (For Blood and Empire) 2007 — «911 for Peace (live)» (A Benefit for Victims of Violent Crime) 2008 — «The Bright Lights Of America» (The Bright Lights Of America) 2009 — «When All The Lights Go Out» (The People Or The Gun) Скрыть...
Популярные аккорды Anti-Flag:
алфавиту | просмотрам | случайно
  • Intro
    Gb---------------------------------4-4-4-4-4-4-4-4---9-9-9-9-9-9-9-9-
    Db-------------------------------------------------------------------
    Ab-7-7-7-7-7-7-7-7-7-7-7-7-7-7-7-7-----------------------------------
    Eb-------------------------------------------------------------------
    
    Pre-Chorus
    Gb-----------------------------------------------------
    Db-----------------------------------------------------
    Ab-7-7-7-7-7-7-7-7---5-5-5-5-5-5-5-5---0-0-0-0-0-0-0-0-
    Eb-----------------------------------------------------…
  • Intro/Chorus/Out-tro (repeat as needed)
    G----------------------------------------
    D----------------------------------------
    A----4444----------------4444------77----
    E---------5555-0000-2222------5555----777
    
    G-----------------------------------
    D-----------------------------------
    A----4444----------------4444------7
    E---------5555-0000-2222------5555--
    
    Verse
    G-------------------------(repeat…
  • e|-89-99--89-99--89-99—-89-99—-89-99—-12p9----9-------------------------|
    B|-89-99—-89-99--89-99--89-99—-89-99-------12---12p9---9----------------|
    G|-------------------------------------------------------11---11p9----9-11b--|
    D|-----------------------------------------------------------------11--------|
    A|---------------------------------------------------------------------------|
    E|---------------------------------------------------------------------------|
    
    
    e|---------------------------------------------------------------------------|
    B|------9h12p9--------9h12p9--------9h12p9--------9h12p9--------12-12b-12-9--|
    G|-9-----------9h11p9--------9h11p9--------9h11p9--------9h11p9--------------|
    D|---11----------------------------------------------------------------------|
    A|---------------------------------------------------------------------------|
    E|---------------------------------------------------------------------------|
    
    e|------------------------------------------|
    B|---------------------9--------------------|
    G|-11-9-11p9-------11-----11----------------|
    D|-----------11~--------------11~-----------|
    A|------------------------------------------|
    E|------------------------------------------|…
  • Tuning: Standard (E A D G B E)Intro
    E|-------------------------------------------------------------||
    B|-------------------------------------------------------------||
    G|----------6-6-6-6---------6-6-6-6---------6-6-6-6---------6--||
    D|--6-6-6-6-6-6-6-6-6-6-6-6-6-6-6-6-6-6-6-6-6-6-6-6-6-6-6-6-6--||
    A|--6-6-6-6-4-4-4-4-6-6-6-6-4-4-4-4-6-6-6-6-4-4-4-4-6-6-6-6-4--||
    E|--4-4-4-4---------4-4-4-4---------4-4-4-4---------4-4-4-4----||
    
    Verse
    E|---------------------------------------------------||
    B|------------R-----------R-----------R--------------||
    G|----------6-E---------6-E---------6-E---------6~~--||
    D|--6-6-6-6-6-S-6-6-6-6-6-S-6-6-6-6-6-S-6-6-6-6-6~~--||
    A|--6-6-6-6-4-T-6-6-6-6-4-T-6-6-6-6-4-T-6-6-6-6-4~~--||
    E|--4-4-4-4-----4-4-4-4-----4-4-4-4-----4-4-4-4-4~~--||
    
    Chorus
    E|-------------------------------------------------------------||
    B|-------------------------------------------------------------||
    G|----------6-6-6-6---------6-6-6-6---------6-6-6-6---------6--||
    D|--6-6-6-6-6-6-6-6-6-6-6-6-6-6-6-6-6-6-6-6-6-6-6-6-6-6-6-6-6--||
    A|--6-6-6-6-4-4-4-4-6-6-6-6-4-4-4-4-6-6-6-6-4-4-4-4-6-6-6-6-4--||
    E|--4-4-4-4---------4-4-4-4---------4-4-4-4---------4-4-4-4----||
    
    Bridge
    E|-----------------------------------||
    B|-----------------------------------||
    G|--4-4-4-4-6-6-6-6-8-8-8-8-8-8-8-8--||
    D|--4-4-4-4-6-6-6-6-8-8-8-8-8-8-8-8--||
    A|--2-2-2-2-4-4-4-4-6-6-6-6-6-6-6-6--||
    E|-----------------------------------||
    
    Enjoy!…
  • Intro: slide pick
    
    Verse/chorus:
    E|----------------------------------------------|
    B|----------------------------------------------|
    G|--6xx--------------6xx-----999------6---------|
    D|--6xx-7xx-222-444--6xx-7xx-999-999--6---------|
    A|--4xx-7xx-222-444--4xx-7xx-777-999--4---------|
    E|------5xx-000-244------5xx-----777------------|
    *let…
  • Intro:
    Intro-Lead Guitar
    e|-----------------------------------------------------------------------|
    B|-----------------------------------------------------------------------|
    G|-11~~---------------11~~-----------------------Pickslide---------------|
    D|-11~~---------------11~~--------------\\-|
    A|-9~~~---------------9~~~--------------\\-|
    E|--------------------------------------\\-|
    
    e|-----------------------------------------------------------------------|
    B|-----------------------------------------------------------------------|
    G|-11-11-11-11-11-11-11-11-11-11-11-11-11-11-11-11-----------------------|
    D|-11-11-11-11-11-11-11-11-11-11-11-11-11-11-11-11-----------------------|
    A|-9--9--9--9--9--9--9--9--9--9--9--9--9--9--9—-9------------------------|
    E|-----------------------------------------------------------------------|
    
    e|-----------------------------------------------------------------------|
    B|-----------------------------------------------------------------------|
    G|-----------------9-9-9-9-9-9-9-9---------------------------------------|
    D|-9-9-9-9-9-9-9-9-9-9-9-9-9-9-9-9---------------------------------------|
    A|-9-9-9-9-9-9-9-9-7-7-7-7-7-7-7-7---------------------------------------|
    E|-7-7-7-7-7-7-7-7-------------------------------------------------------|
    
    e|-----------------------------------------------------------------------|
    B|-----------------------------------------------------------------------|
    G|-11-11-11-11-11-11-11-11-11-11-11-11-11-11-11-11-----------------------|
    D|-11-11-11-11-11-11-11-11-11-11-11-11-11-11-11-11-----------------------|
    A|-9--9--9--9--9--9--9--9--9--9--9--9--9--9--9—-9------------------------|
    E|-----------------------------------------------------------------------|
    
    e|-----------------------------------------------------------------------|
    B|-----------------------------------------------------------------------|
    G|-----------------9-9-9-9-9-9-9-9---------------------------------------|
    D|-9-9-9-9-9-9-9-9-9-9-9-9-9-9-9-9---------------------------------------|
    A|-9-9-9-9-9-9-9-9-7-7-7-7-7-7-7-7---------------------------------------|
    E|-7-7-7-7-7-7-7-7-------------------------------------------------------|
    
    Verse:
    e|-----------------------------------------------------------------------|
    B|-----------------------------------------------------------------------|
    G|-11-11-11-11-11-11-11-11-11-11-11-11-11-11-11-11-----------------------|
    D|-11-11-11-11-11-11-11-11-11-11-11-11-11-11-11-11-----------------------|
    A|-9--9--9--9--9--9--9--9--9--9--9--9--9--9--9—-9------------------------|
    E|-----------------------------------------------------------------------|
    Pm:…
  • Part A:
    Gb-------------------------------------------------
    Db-------------------------------------------------
    Ab-5-5-5-5-5-5-------------3-3-3-3-3-3-------------
    Eb-------------6-6-6-5-5-5-------------1-1-1-3-3-3-
    
    Gb-------------------------------------------------
    Db-------------------------------------------------
    Ab-5-5-5-5-5-5-------------8-8-8-8-8-8-------------
    Eb-------------6-6-6-5-5-5-------------8-8-8-8-8-8-
    
    Part…
  • Intro:
    e|-------------------------------------------------------------
    B|-------------------------------------------------------------
    G|-6-6-6-6-9-9-9-9-9-9-9-9-9-----------------------------------
    D|-6-6-6-6-9-9-9-9-9-9-9-9-9-----------------------------------
    A|-4-4-4-4-7-7-7-7-6-6-6-6-7-----------------------------------
    E|-------------------------------------------------------------
    
    e|-------------------------------------------------------------
    B|-------------------------------------------------------------
    G|-6-6-6-6-9-9-9-9-9-9-9-9-9-----------------------------------
    D|-6-6-6-6-9-9-9-9-9-9-9-9-9-----------------------------------
    A|-4-4-4-4-7-7-7-7-6-6-6-6-7-----------------------------------
    E|-------------------------------------------------------------
    
    Verse:
    e|-------------------------------------------------------------
    B|-------------------------------------------------------------
    G|--6-6--6--6--9-9--9--9--9-9--9--9--9-9--9--9-----------------
    D|--6-6--6--6--9-9--9--9--9-9--9--9--9-9--9--9-----------------
    A|--4-4--4--4--7-7--7--7--6-6--6--6--7-7--7--7-----------------
    E|-------------------------------------------------------------
    
    e|-------------------------------------------------------------
    B|-------------------------------------------------------------
    G|--6-6--6--6--9-9--9--9--9-9--9--9--9-9-9-9-9-9-9-9-----------
    D|--6-6--6--6--9-9--9--9--9-9--9--9--9-9-9-9-9-9-9-9-----------
    A|--4-4--4--4--7-7--7--7--6-6--6--6--7-7-7-7-7-7-7-7-----------
    E|-------------------------------------------------------------
    
    
    Pre-Chorus…
  • intro/riff
    E|-------------------------------------------
    B|-------------------------------------------
    G|-------------------------------------------
    D|-44444433------33--------------------------
    A|---------444444----------------------------
    E|-----------------4444446677777744----------
    
    E|-------------------------------------------
    B|-------------------------------------------
    G|-------------------------------------------
    D|-44444433------33------8-9-----------------
    A|---------444444--------8-9-----------------
    E|-----------------4444446-7-----------------
    
    
    E|-------------------------------------------
    B|-------------------------------------------
    G|-11-11-11-11-------------9-9-9-9-----------
    D|-11-11-11-11-11-11-11-11-9-9-9-9-9-9-9-9---
    A|--9--9--9--9-11-11-11-11-7-7-7-7-9-9-9-9---
    E|--------------9--9--9--9---------7-7-7-7---
    
    Chorus:
    E|-------------------------------------------
    B|-------------------------------------------
    G|-11-11-111110-----------10-----------------
    D|-11-11-111110-11-11-111110-6-6-668-9-9-996-
    A|--9--9--9-9-8-11-11-1111-8-6-6-668-9-9-996-
    E|---------------9--9--9-9---4-4-446-7-7-774-…
  • Intro
    E|-1-1--3-3-3-------1-1-1-------------------------------|
    B|-1-1--3-3-3--3-3--3-3-3-3-3-3-33-5-55-3-33------------|
    G|-2-2--4-4-4--3-3--2-2-2-3-3-3-33-5-55-3-33------------|
    E|-3-3--5-5-5--3-3--0-0-0-3-3-3-33-5-55-3-33-3-3-33-33-3|
    A|-3-3--5-5-5--1-1--0-0-0-1-1-1-11-3-33-1-11-3-3-33-33-3|
    E|-1-1--3-3-3--------------------------------1-1-11-11-1|
    
    Pre…
  • Intro/Chorus:
    Gb-------------------------------------------
    Db-------------------------------------------
    Ab-5-5-5-----8-8-8-8-8-8-5-5-5-----8-8-8-----
    Eb-------6-6-------------------6-6-------8-8-
    
    Gb-----------------------7-7-----10-
    Db---------------------------8-8----
    Ab-5-5-5-----8-8-8-8-8-8------------
    Eb-------6-6------------------------
    
    
    -----------------------------Verse---------------------------------
    
    
    Verse:…
  • e--------------------------------| 
    B--------------------------------| 
    G--------4-----6-6---------4-----| 
    D--7--6--4--4--6-6---7--2--4--4--| 
    A--7--6--2--4--4-4---7--2--2--4--| 
    E--5--4-----2--------5--0-----2--| 
    
    solo
    e---------------2-4-2-----2---------------------2-4-2-----------------------|…
  • ----------------16-9-13---16-9-13--------------------------------------------- 
    -11-11----11-14---------9---------7-6-6-4-6---11----13--11---13--11---------3- 
    -------10---------------------------------------10----10--10---10--10---11----…
  • Intro/Verse:
    -----------------------------------------------------
    -----6-4-3-------------------4-2-------------2-2-4-4-
    -4-4-----------7-7-5-5-4-4-2-----4-2-----4-4---------
    -----------5-5-----------------------2-2-------------
    
    2nd…
  • INTRO (also verses)
    e----------------------------------------
    b----------------------------------------
    g-66666666--88888888--44444444--66--44---
    d-66666666--88888888--44444444--66--44---
    a-44444444--66666666--22222222--44--22---
    e----------------------------------------
    
    
    e----------------------------------------
    b----------------------------------------
    g-66666666--88888888--44444444-----------
    d-66666666--88888888--44444444-----------
    a-44444444--66666666--22222222-----------
    e----------------------------------------
    
    
    CHORUS
    e----------------------------------------
    b----------------------------------------
    g-3333333--8--6666666--8-----------------
    d-3333333--8--6666666--8-----------------
    a-1111111--6--4444444--6-----------------
    e----------------------------------------…
  • Intro
    E------------------------------------------------------------
    B------------------------------------------------------------
    G-------77-66--------77-66------------77-66--------77-99-----a few times
    D----99-----------99---------------99-----------99-----------
    A-------------------------------00-----------00--------------
    E-77----------77---------------------------------------------
    Verse
    E---2----3-3-------------------------------------------------
    B-----3--0---3-----------------------------------------------
    G-4------0---------------------------------------------------
    D-4------0---------------------------------------------------
    A-4------2---------------------------------------------------
    E--------3---------------------------------------------------
    But…
  • Intro:
    E|---------------------------------
    B|---------------------------------
    G|------------4----------4-44-4----
    D|-6------66-----6--6----4-44-4-6--
    A|-6------66--------6----2-22-2-6--
    E|-4------44--------4-----------4--…
  • Intro
    e|-00-x-000-x-0-------------------------------------------------------------
    B|-11-x-111-x-1-------------------------------------------------------------
    G|-22-x-222-x-2-------------------------------------------------------------
    D|-22-x-222-x-2-55-x-555-x-53-----------------------------------------------
    A|--------------55-x-353-x-53-----------------------------------------------
    E|--------------33-x-333-x-31-----------------------------------------------
    
    Verse
    e|--------------------------------------------------------------------------
    B|--------------------------------------------------------------------------
    G|--------------------------------------------------------------------------
    D|-5--77777777/55555555/33333333-55-x-77--77777777/55555555/33333333--------
    A|-35/77777777/55555555/33333333-33-x-55--77777777/55555555/33333333--------
    E|--3/55555555/33333333/11111111----------55555555/33333333/11111111--------
    
    e|--------------------------------------------------------------------------
    B|--------------------------------------------------------------------------
    G|--------------------------------------------------------------------------
    D|-5555/7777--77777777/55555555/33333333-55-x-77-77777777/55555555/33333333-
    A|-3333/5555--77777777/55555555/33333333-33-x-55-77777777/55555555/33333333-
    E|------------55555555/33333333/11111111---------55555555/33333333/11111111-
    
    
    Verse…
  • intro
    e|---------------------------| 
    B|---------------------------| 
    G|--12--7--------------------| 
    D|--12--7--7--(9-)-----------| 
    A|--10~-5~-7--(9-)-----------| 
    E|---------5~-(7-)-----------| x2
    
    chorus: 
    e|----------------------------------------------------|…
  • ------------------------------------------------------------|
    -----88-77-55-33-55-33-22--------------------      intro #1-|    (4 times)
    --55----------------------------333---5555555---------------|
    ---------------------------1111-----3-----------------------|
    
    --------------------------------------------------------------------|
    -----88-77-55-33-55-33-22----------------------…
  • Intro: X2 
    e|---------X3---------------|-------------------------------------------------| 
    B|--------------------------|-------------------------------------------------| 
    G|------8-8--6-6-6-6-6-6-6--|-8-8-8-8-8-8-8-8-8-8-8-8-------------------------|…
  • Intro
    e|---------------------------------------------------------------------------|
    B|------4--2------7--6-------4--2--------------------------------------------|
    G|------------4~--------6~---------4~---7---9----11--------------------------|
    D|---------------------------------------------------------------------------|
    A|---------------------------------------------------------------------------|
    E|---------------------------------------------------------------------------|
    
    Verse
    e|------------------------------|---------------------------------------------|
    B|------------------------------|---------------------------------------------|
    G|---3------6------3------6-----|-3------6------3-------6-----6-----10~-------|
    D|---1--4---4--6---1--4---4--6--|-1--4---4--6---1--4----4-----8-----8~--------|
    A|------2-------4-------2----4--|----2------4------2--------------------------|
    E|------------------------------|---------------------------------------------|
    
    Lead:
    
    e|---------------------------------------------------------------------------|
    B|------4--2------7--6-------4--2--------------------------------------------|
    G|------------4~--------6~---------4~---7---9----11--------------------------|
    D|---------------------------------------------------------------------------|
    A|---------------------------------------------------------------------------|
    E|---------------------------------------------------------------------------|
    
    Rhythm:
    e|------------------------------------------------------------------------|
    B|------------------------------------------------------------------------|
    G|------3---------6----------3---------6----8----10-----------------------|play…
  • Intro:
    
    E|-------------------------------------------------------|
    B|-------------------------------------------------------|
    G|--------------9-9-9-6-6-6-------------9-9-9-9-9-9-9-9--|
    D|--6-6-6-9-9-9-9-9-9-6-6-6-6-6-6-9-9-9-9-9-9-9-9-9-9-9--|
    A|--6-6-6-9-9-9-7-7-7-4-4-4-6-6-6-9-9-9-7-7-7-7-7-7-7-7--|
    E|--4-4-4-7-7-7-------------4-4-4-7-7-7------------------|
    cont.
    E|------------------------------------------------------------|
    B|------------------------------------------------------------|
    G|--------------9-9-9-6-6-6-----------------6-6-6-6-6-6-6-6---|
    D|--6-6-6-9-9-9-9-9-9-6-6-6-9-9-9-9-9-9-9-9-6-6-6-6-6-6-6-6---|
    A|--6-6-6-9-9-9-7-7-7-4-4-4-9-9-9-9-9-9-9-9-4-4-4-4-4-4-4-4---|
    E|--4-4-4-7-7-7-------------7-7-7-7-7-7-7-7-------------------|
    
    
    Verse:
    
    E|----------------------------------------------------------------|
    B|----------------------------------------------------------------|
    G|-----------------9--9-9-9-9-9-9----------------6--6-6-6-6-6-6---|
    D|--6--6-6-6-6-6-6-9--9-9-9-9-9-9-9--9-9-9-9-9-9-6--6-6-6-6-6-6---|
    A|--6--6-6-6-6-6-6-7--7-7-7-7-7-7-9--9-9-9-9-9-9-4--4-4-4-4-4-4---|
    E|--4--4-4-4-4-4-4----------------7--7-7-7-7-7-7------------------|…
  • Intro(main guitar):
    
    e--------------------------------------------------
    B--------------------------------------------------
    G--------------------------------------------------   
    D--9--------13-16----------------------------------
    A--9--------13-16----------------------------------
    E--7--------11-14----------------------------------
    
    
    Verse:(not…
  • e|------------------------------------------------------------------
    b|------------------------------------------------------------------
    g|-8-8-8-8-8-1111111111---------------11111-------------------------
    d|-8-8-8-8-8-1111111111-111111111111--11111-11--9-9-9-9-9-1111111111
    a|-6-6-6-6-6--9-9-9-9-9-111111111111--9-9-9-11--9-9-9-9-9-1111111111
    b|-----------------------9-9-9-9-9-9---------9--7-7-7-7-7--9-9-9-9-9
    
    e|--------------------------
    b|--------------------------
    g|-8-8-8-8-8-8----14/-14/---…
  • intro (2x)
    e|--------------------------------------------------------
    b|--*-*-------*-*-*-*----*-*-------*-*---*----------------
    g|--6-6--*-*--7-7-7-7----6-6--*-*--7-7---9----------------
    d|--6-6--6-6--7-7-7-7----6-6--6-6--7-7---9----------------
    a|--4-4--6-6--5-5-5-5----4-4--6-6--5-5---7----------------
    E|-------4-4------------------4-4-------------------------…
  • G:---------------------------------------------------------------
    D:---------------------------------------------------------------
    A:---------33333333 4 3 4 6 4 6 7 ---------33333333 4 3 1 3 1--1
    E:11111111------------------------11111111-----------------------4…
  • Verse
    
    G---------------------------------------------------------------------
    D---------5>---------------------------------------------------------
    A--7>-----------5>------7>----------------------------------------
    
    Chorus
    
    G----------------------------------------------------------------------
    D-------------------5--------------------------------------------------
    A----7-7-7-7---------5----------------------------------------------
    E---------------8------------------------------------------------------…
  • Intro: 
    G|------------------|
    D|------------------|
    A|-444-000----------| x4 
    E|----------000-000-| 
    
    Verse1:                                      
    G|---------------------|
    D|-----------------212-|
    A|-4474-4474-0040-2----|…
  • Intro/verse:
    Gb-----------------------------------------------------------------
    Db-----------------------------------------------------------------
    Ab-----7-7-----7-7-----7-7-----7-7-----5-5-----5-5-----9-9-----9-9-
    Eb-7-7-----7-7-----7-7-----7-7-----5-5-----5-5-----9-9-----9-9-----
    
    Chorus:
    Gb-------------------------------------------------
    Db-------------------------------------------------
    Ab-------------7-7-7-7-7-7-------------9-9-9-9-9-9-
    Eb-7-7-7-7-7-7-------------5-5-5-5-5-5-------------
    
    3rd…
  • Intro 
    e|-/-/-/---------------------------------------------------------------------| 
    B|-/-/-/---------------------------------------------------------------------| 
    G|-/-/-/-------10-8-7--------------------------------------------------------|…
  • G|--------------------------------------------------------------------------|
    D|-3-3-3--------------------------3-3-3-------------------------------------|
    A|---------4-4-4----------6-6-6----------4-4-4-4-4-4-4-4-----------6-6-6-6--|
    E|---------------4-4-4------------------------------------4-4-4-4-----------|
    play…
  • Intro
    
    g-------------------------------------
    d----------------------00-22----22-44-
    a-44444444-----------22-------44------     (play 5 times)
    e---------55555555-00-------22--------
    
    Verse
    
    g----------------------------------------------
    d-----------------------------------77-66-44-2-…
  • Introduction:(Almost all song is the same)
    
    G------------------------------------|
    D------------------------------------|
    A-00--44--77--6-------------77---99--|
    E----------------------7777----------|
    
    G------------------------------------------|
    D-------44---77--6-----------77--99--------|
    A--44-----------------7777-----------------|
    E------------------------------------------|
    
    
    Riff…
  • Intro
    1---------------------------|
    2---------------------------|
    3---------------------------| play alot of times
    4---8--8--8-----------------|
    5---6--6--6--then palm mute-|
    6---------------------------|
    
    Verse(the whole…
  • Intro:
    Gb---7-------7---------7-7---------7-7---7-7---------7-7---------7-------7---
    Db-------7-7---------------7-----7-----7-----7-2---------7-----------7-7-----
    Ab-5---5-------2-----------------------------------------------5---5-------2-
    Eb---------------------------------------------------------------------------
    
    Verse:
    Gb-------------------------------------------------------------7---
    Db---------------------------------------------------------7-7---7-
    Ab-2-2-2-2-2-2-2-2---------------------------------5-5-5-5---------
    Eb-----------------3-3-3-3-3-3-3-3-0-0-0-0-0-0-0-0-----------------
    
    Chorus:
    Gb-----------------------------------------------
    Db-----------------------------------------------
    Ab-----------------------------------------------
    Eb-3-3-3-3-3-3-5-5-5-5-5-5-7-7-7-7-7-5-7-7-7-7-7-
    
    Gb---------------------------------------------------------
    Db-------------------------------------------------7h9-9-9-
    Ab-------------5-5-5-5-5-5---------5h7-7-7-7h9-9-9---------
    Eb-3-3-3-3-3-3-------------5h7-7-7-------------------------
    
    Gb-----------------------------------------------
    Db-----------------------------------------------
    Ab-----------------------------------------------
    Eb-3-3-3-3-3-3-5-5-5-5-5-5-7-7-7-7-7-5-7-7-7-7-7-
    
    Gb-----------
    Db-----------
    Ab-------5-5-
    Eb-3-3-------
    
    Beginning…
  • Verse 1/ verse 2
    E |--3--------------3----3-----------------------------------------------------
    B |--3----3----3----3----3----3---3----3----3----3----3------------------------
    G |--0----0----0----0----0----0---0----0----0----0----2------------------------
    D…
  • Intro:
    -----------------------------------------
    -----------------------------------------
    -4-4-4-4-4-4-4-4-7-7-7-2-2-2-4-4-4-4-4-4-
    -----------------------------------------
    
    Pre Verse:
    -----------------------------------------------------------
    -------------------------------------------9-9-7-7---------
    -4-4-4-4-4-4-7-7-7-7-7-7-----9-9-7-7---------------9-9-7-7-
    -------------------------7-7---------10-10-----------------
    
    1st…
  • Intro:
    G---------------------------------
    D---------------------------------
    A-4-4-4-4------------------------
    E---------5-5-5-5-0-0-0-0-2-2-2-2
    
    G---------------------------------
    D---------------------------------
    A--4-4-4-4----------7-7-----------
    E----------5-5-5-5------7-7-7-7---
    
    G---------------------------------
    D---------------------------------
    A-4-4-4-4------------------------
    E---------5-5-5-5-0-0-0-0-2-2-2-2
    
    G----------------------
    D---------------------
    A--4-4-4-4----------7-
    E----------5-5-5-5----
    
    verse:…
  • Intro:
    Gb----------
    Db----------
    Ab-------7--
    Eb-0--------
    
    Pre-verse:
    Gb-------------------------------------------9-9-9-9-9-7-9-9-7-7---------
    Db---------------------------9-9-9-9-9-9-9-9---------------------9-9-7-7-
    Ab-7-7-7-7-7-7-7-7-7-7-7-7-7---------------------------------------------
    Eb-----------------------------------------------------------------------
    
    Verse:
    Gb-------------9-9-
    Db-----9-9---------
    Ab-7-7-----7-7-----…
  • Intro:
    Gb-----------2-2-0-2-0---------------0-0-0---------
    Db---------------------3-2-----------------2-0-----
    Ab-0-0-0-0-0-----------------------------------3-2-
    Eb-------------------------0-0-0-0-0---------------
    
    Verse:
    Gb-------------------------------0-0-0---------
    Db-------------------------------------2-0-----
    Ab-0-0-0-0-0-0-0-0-0-0---------------------3-2-
    Eb---------------------0-0-0-0-0---------------
    
    Chorus:
    Gb---------------------2-0-----0---------------------------14-12-------------------
    Db-------------------------3-2---3-2-3-0-0-0-0-0-0-0-0-0-0-------15-14-12----------
    Ab-0-0-0-0-0-0-0-0-0-0----------------------------------------------------15-14-12-
    Eb---------------------------------------------------------------------------------
    
    1st…
  • Intro/Verse:
    Gb-------------5-5-5-4-4-2-2-------------5-5-5-4-4-2-2-
    Db-2-2-2-2-2-2---------------2-2-2-2-2-2---------------
    Ab-----------------------------------------------------
    Eb-----------------------------------------------------
    
    
    Gb-------------5-5-5-4-4-2-2-----------------
    Db-0-0-0-0-0-0-------------------------0---0-
    Ab---------------------------3-3-3-3-3---3---
    Eb-------------------------------------------
    
    Chorus:
    Gb---------------------------7---7-9-
    Db---------5-5-5-5-7-7-7-7-9---9-----
    Ab-7-7-7-7---------------------------
    Eb-----------------------------------
    
    Bridge…
  • INTRO/VERSE
    
    --------------------------------------------------------------------
    --------------------------------------------------------------------
    ------------x3------------------------------------------------------
    --------11---------------9*-----------------------------------------
    --11*---9----------------7------9-----------------------------------
    --9-----------------------------7-----------------------------------
    
    
    ON…
  • G
    D                                                                 5 7 3 5 2 3 0 2                 3 3 2 3 5 5        
    A  3 3 2 33                              3 3 2  3 3 0
    E               0 1 1 1 3 3 3 1 0 3 3 2 3 3 0
  • Verse:(1x)(0:00)
    [---------------][-----------------------------------------------------------]
    [---(play 3x)---][---(play 1x)-----------------------------------------------]
    [---------------][-----------------------------------------------------------]
    [-8--4444--6666-][-8x8x8x8x8x8x8x8x--4x4x4x4x--6x6x6x6x----------------------]
    [-8--4444--6666-][-8x8x8x8x8x8x8x8x--4x4x4x4x--6x6x6x6x----------------------]
    [-6--2222--4444-][-6x6x6x6x6x6x6x6x--2x2x2x2x--4x4x4x4x----------------------]
    
    Chorus:(2x)(0:16)
    [------------------------][--------------------------------------------------]
    [------------------------][--------------------------------------------------]
    [-------6666-------------][-------6666---------------------------------------]
    [-8888--6666--6666--4444-][-8888--6666--4x4x4x4x--6x6x6x6x-------------------]
    [-8888--4444--6666--4444-][-8888--4444--4x4x4x4x--6x6x6x6x-------------------]
    [-6666--------4444--2222-][-6666--------2x2x2x2x--4x4x4x4x-------------------]
    
    Verse…
  • Intro:
    G-----10-8-7------------10-8-7------------
    D-8-8--------10-8-6-8-8--------10-8-6--
    A-----------------------------------------
    E-----------------------------------------
    
    G---------------------8-6-5-------
    D-----8-6-5-6-8-5-6-6-------8-6-5-
    A-6-6-----------------------------
    E---------------------------------
    
    Verse:
    G-------------------------
    D-8-8-8-8-8-8-------6-6-6-
    A-------------6-6-6-------
    E-------------------------
    
    Chorus:
    G-------------------
    D-------------------
    A-6--6--------------
    E------4--4-6-6-6-6-
    
    Bridge:
    G-----10-8-7-8--8-8-------
    D-8-8---------------8-6-8-
    A-------------------------…
  • Intro (yeah the intro is fun)
    1---------4-4-4-0-0-2-2-2-----------once you play that
    2---2-2-2-----------------4-4-4-0-0-twice 
    3-----------------------------------
    4-----------------------------------
    5-----------------------------------
    6-----------------------------------
    
    drop…
  • Intro:
    e|--------------------------------------------------------------------------|
    B|--------------------------------------------------------------------------|
    G|--------------------------------------------------------------------------|
    D|--------------------------------------------------------------------------|
    A|--------------------------------------------------------------------------|
    E|-6666666666666666--(harmonics)--------------------------------------------|
    
    Intro…
  • Verse:
    Gb---------------------------------------------------------------------
    Db-----11-11-9-9-----------9-9-7-7---------7-7-5-5-------------5-5-7-7-
    Ab-9-9-----------11-11-7-7---------9-9-5-5---------7-7-----7-7---------
    Eb-----------------------------------------------------5-5-------------
    
    Chorus:
    Gb-------------------------------------------------
    Db-------------------------------------------------
    Ab-------------4-4-4-4-4-4-------------4-4-4-4-4-4-
    Eb-6-6-6-6-6-6-------------6-6-6-6-6-6-------------
    
    Outro:
    Gb---------9----------5---------------------------
    Db---11-11---11---7-7---7-------5-----------------
    Ab-9------------5-----------7-7---7-7-7-7-7-7-7-7-
    Eb------------------------5-----------------------
    
    Gb---------9----------5----------------
    Db---11-11---11---7-7---7-------5------
    Ab-9------------5-----------7-7---7--7-
    Eb------------------------5------------…
  • G:--------------------------------------------------------------
    D:----77777777777777777-----------------------------
    A:-------------------------------------888888888--0------
    E:--------------------------------------------------------------
    
    
    G:---------------------------------------------------------------
    D:---7777-----------9999--10-10-10-10----------------
    A:------------8888--------------------------------------------
    E:---------------------------------------------------------------…
  • Intro:
    -----------------
    -----------------
    -6-6-----4-4-----   play many of times
    -----4-4-----6-6-
    
    
    Pre 1st verse/chorus:
    ---------------------------------
    -----5-5-6-6-8-8-----------------
    -6-6-----------------5-5-6-6-8-8-
    -----------------6-6-------------
    
    ---------------------------------
    -----3-3-4-4-6-6-----------------
    -4-4-----------------3-3-4-4-6-6-
    -----------------4-4-------------
    
    Verse:
    
    -------------------------------------------------
    -------------------------------------------------
    -6-6-6-6-6-6-------------4-4-4-4-4-4-------------
    -------------6-6-6-6-6-6-------------4-4-4-4-4-4-
    
    after…
  • e------------------------------------6-----------------------------------
      b--------------------------------7------7-7---6--------------------------
      g-------------------------------------------------8---6------------------…
  • Intro1: 1x
    Guitar1
    E----------------------------------------------------------------------------
    H—5-5----------------5-5----------------5-5-------------5-5------------------
    G--------5-5-4-4-0-0------5-5-4-4-0-0------5-5-4-4-0-0------5-5-7-7-4-4------
    D----------------------------------------------------------------------------
    A----------------------------------------------------------------------------
    E----------------------------------------------------------------------------
    
    Guitar2
    E----------------------------------------------------------------------------
    H----------------------------------------------------------------------------
    G----------------------------------------------------------------------------
    D----------------------------------------------------------------------------
    A----------------------------------------------------------------------------
    E----------------------------------------------------------------------------
    
    Intro2:…
  • INTRO
    e|--------------------------------------------------------------------------
    B|--------------------------------------------------------------------------
    G|--8888--5555--3-----------------------------------------------------------
    D|--8888--5555--3-----------------------------------------------------------
    A|--6666--3333--1-----------------------------------------------------------
    E|--------------------------------------------------------------------------
    
    e|--------------------------------------------------------------------------
    B|-8--11--8--11-11-11/1311--8--11--11-11-11/1311--8--11--11-11-11/1311---
    G|--88--88-88--------------88-88--88--------------88-88--88--------------89-
    D|--------------------------------------------------------------------------
    A|--------------------------------------------------------------------------
    E|--------------------------------------------------------------------------
    
    VERSE
    e|-------------------------------------------------------------------
    B|-------------------------------------------------------------------
    G|-8888--5--3--------------------------------------------------------
    D|-8888--5--3--6-----------------------------------------------------
    A|-6666--3--1--6-----------------------------------------------------
    E|-------------4-----------------------------------------------------
    
    BRIDGE
    e|-------------------------------------------------------------------
    B|-------------------------------------------------------------------
    G|--5555--3333--88888887---------------------------------------------
    D|--5555--3333--88888887---------------------------------------------
    A|--3333--1111--66666665---------------------------------------------
    E|-------------------------------------------------------------------
    
    CHORUS
    e|-------------------------------------------------------------------
    B|-------------------------------------------------------------------
    G|--8888--5555--3333-------------------------------------------------
    D|--8888--5555--3333--6666-------------------------------------------
    A|--6666--3333--1111--6666-------------------------------------------
    E|--------------------4444-------------------------------------------
    
    INTRO…
  • Intro/Outro:
    Gb-----------------------------------------
    Db-----------5-5-5-5-5-----------5-5-5-5-5-
    Ab-7-7-7-7-7-----------7-7-7-7-7-----------
    Eb-----------------------------------------
    
    Gb-----------------------------------------------7-7-9-9-11-11-
    Db-------5-5-5-------5-5-5-----5-5-7-7-9-9-10-10---------------
    Ab-7-7-7-------7-7-7-------7-7---------------------------------
    Eb-------------------------------------------------------------
    
    Verse:
    Gb-----------------------------
    Db---------------------3-3-5-5-…
  • Verse
    
    G:------------------6-4-6-------------------------------------
    D:--------------------------6-----------------------------------
    A:--6/---2/---4-------------------4-6-4----------------------
    E:---------------------------------------------------------------
    
    chorus
    G:---------------------------------------------------------------
    D:---------------------------------------------------------------
    A:--6/---2/---4/-----------------------------------------------
    E:---------------4/---------------------------------------------
    
    bridge
    G:---------------------------------------------------------------
    D:---------------------------------------------------------------
    A:--2/---6/---2/---6/---4/---2/---1/---4/---2/---1/------
    E:---------------------------------------------------------------
    
    guitar…
  • C                                            Am/C
    One trillion dollars could buy a lot of bling
    Am                                           Am/C
    One trillion dollars could buy most anything
    C…
  • Intro:
    Gb---9-7---7-7-9-9---------5-5-7-7-----------------------------
    Db-------9-------------7-7---------------------7-7-5-5---------
    Ab-7---------------5-5-------------3-3-3-3-3-3---------8-8-7-7-
    Eb-------------------------------------------------------------
    
    Gb---9-7---7-7-9-9---------5-5-7-7-------------9-9-9---7-7-9-9-
    Db-------9-------------7-7---------------------------7---------
    Ab-7---------------5-5-------------3-3-3-3-3-3-----------------
    Eb-------------------------------------------------------------
    
    Verse:
    Gb-----------------------------------------------------------------
    Db-2-2-2-2-2-2-2-2---------------------------------5-5-5-5-5-5-5-5-
    Ab-----------------5-5-5-5-5-5-5-5-3-3-3-3-3-3-3-3-----------------
    Eb-----------------------------------------------------------------
    
    Chorus:
    Gb-----------------------------------------2-2-4-2-
    Db-2-2-2-2-2-2-2-2---------------------4-4---------
    Ab-----------------3-3-3-3-3-3-3-3-2-2-------------
    Eb-------------------------------------------------
    
    Bridge:
    Gb---------------------------------------------
    Db-----------------------------------------5-7-
    Ab-7-5-7-5-7-5-7-5-7-5-7-5-7-5-7-5-7-5-7-5-----
    Eb---------------------------------------------…
  • INTRO
       B    F    G#   E  F#
    e|------2222-4444----22---------------------------------------------
    B|-4444-2222-4444----22---------------------------------------------
    G|-4444-3333-5555-11-33---------------------------------------------
    D|-4444-4444-6666-22-44---------------------------------------------
    A|-2222-4444-6666-22-44---------------------------------------------
    E|------2222-4444-00-22---------------------------------------------…
  • Intro: D - A - Bm - A
    
    Verse 1:
                  D     A           Bm               A
    All of the scrutiny, I feel the eyes fall down upon me
          D       A          Bm               A
    Is it amnesty? Or is it hang me…
Наверх