Аккорды «Bad Religion»

Bad Religion
Bad Religion — американская панк-рок-группа из северного предместья Лос-Анджелеса, образованная в 1979 году. Отцы калифорнийского панка Bad Religion - одна из наиболее крупных фигур в истории панка и в тоже время один из самых коммерчески успешных американских панк-проектов. Серьезные и осмысленные тексты их песен, в которых речь часто идет о религии, политике, философии, экологии, выделяют BR из толпы их музыкальных подражателей. Вместе с Black Flag и Descendents, BR сделали Южную Калифорнию… Читать полностью... Bad Religion — американская панк-рок-группа из северного предместья Лос-Анджелеса, образованная в 1979 году. Отцы калифорнийского панка Bad Religion - одна из наиболее крупных фигур в истории панка и в тоже время один из самых коммерчески успешных американских панк-проектов. Серьезные и осмысленные тексты их песен, в которых речь часто идет о религии, политике, философии, экологии, выделяют BR из толпы их музыкальных подражателей. Вместе с Black Flag и Descendents, BR сделали Южную Калифорнию очагом панк-культуры, откуда впоследствии вышло немало классных команд, а гитарист оригинального состава группы, Брэтт Гуревиц (Brett Gurewitz) в настоящее время владелец самого крупного и известного панк-лэйбла в мире - Epitaph Records. Вот уже более 30 лет BR являются одной из самых замечательных и интересных групп, продолжая радовать своих поклонников новыми альбомами. История образования BR уходит в далекий 76-ой год, когда будущий фронтмэн группы и уроженец штата Висконсин, Грег Граффин (Greg Graffin) переехал со своей семьей в Сан-Фернандо, штат Калифорния. Молодой Грег быстро попал под влияние тинэйджерской культуры тех мест и вскоре оказался вовлечен в набирающее силу панк-движение. В 79-ом Грег и его школьный товарищ Брэтт Гуревич (по кличке "Mr. Brett") основывают Bad Religion. Кроме них в оригинальный состав BR вошли: Джей Бентли (Jay Bentley) - бас и Джэй Зискроут (Jay Ziskrout) - ударные. В начале 81-го года группа своими силами записывает дебютный EP под названием "Bad Religion" и выпускает его на собственном лэйбле Epitaph Records, специально созданном для этой цели. Сменив барабанщика на Питера Финстоуна (Peter Finestone), BR записывают в 82-ом году первый полноформатный альбом "How Could Hell Be Any Worse", который продюссировал Jim Mankey. Альбом был продан в количестве 10 000 копий менее чем за год. Вскоре после выхода этого диска группа начинает экспериментировать с синтезаторами, и их следующий релиз "Into the Unknown", вышедший в 83-ем, содержит мягкий мелодичный рок с обилием клавиш и без всяких намеков на панк-рок. Фэны страшно разочарованы откровенно провальной пластинкой, а музыканты решаются на роспуск группы: Грег и Питер возвращаются к учебе в колледже, а Джей Бентли присоединяется к Wasted Youth, а позднее переходит в TSOL. В 84-ом Граффин приезжает в Лос-Анжелес, где какое-то время сотрудничает с Грегом Хетсоном (Greg Hetson), гитаристом Circle Jerks, с которыми ранее BR время от времени выступали на концертах. Вскоре BR вновь собираются: возвращается Питер Финстоун, приходит новый басист Тим Галлегос (Tim Gallegos), а Хетсон становится гитаристом. В этом составе в 85-ом году группа записывает мини-альбом "Back to the Known", который получается несколько более медленным нежели ранний материал BR, но стилистически это все тот же панк-рок. С выходом этого диска в группу вновь приходит Брэтт Гуревич и старый басист Бентли, а три года спустя, в 88-ом выходит "Suffer", признанный журналами Maximum Rock'N'Roll и Flipside "альбомом года". Следующие пластинки "No Control" ('89) и "Against The Grain" ('90) делают BR одной из самых популярных панк-групп в США. Их фирменный стиль: гармоничный вокал Грега, скоростные гитарные мелодии и дробь барабанов был взят на вооружение многими последователями, первыми из которых стали группы Pennywise и NOFX, чьи альбомы, спродюссированные Брэттом, вышли в 91-ом на Epitaph и принесли этим группам ошеломляющий успех. В 91-ом Питер уходит в Fisherman, а его место за барабанной установкой занимает Бобби Шайер (Bobby Schayer). Годом же раньше, в 90-ом BR выпустили альбом "80-85", который представлял собой сборник ранних песен группы с первых альбомов (исключение составляет только "Into The Unknown", песни с него не переиздовались, а сам диск является большим раритетом). В 92-ом выходит "Generator", немного мрачный и чуть более медленный альбом, после чего BR окончательно получают статус супер-панкзвезд - особенно группа популярна в Европе, где собирает полные стадионы. Годом позже, в 93-ем, выходит "Recipe For Hate" - еще более медленный с отходом от традиционного панк-рока альбом, который был отвергнут многими давними поклонниками группы во многом из-за песни "American Jesus", где на подпевках выступил Эдди Веддер (Eddie Vedder), вокалист Perl Jam. Не стало неожиданностью последующее подписание контракта BR с Atlantic Records, которые переиздали "Recipe For Hate" и все диски BR вплоть до 2000 года выходили там же. В 94-ом появляется "Stranger Than Fiction", альбом не менее сильный нежели релизы начала 90-ых, который заставил критиков, заговоривших о продажности группы, замолчать. В работе над диском, который по признанию группы стал первым стилистически чистым альбом со времен "Against The Grain", поучаствовали такие колоритные личности как Уэйн Крамер (ex-MC5) и Тим Армстронг (Rancid). Вскоре после выхода "Stranger Than Fiction" Брэтт Гуревич покидает BR, чтобы полностью посвятить себя стремительно развивающейся Epitaph Records, его заменил Брайан Бэйкер (Brian Baker, ех-Minor Threat, Dag Nasty, Junkyard) с которым и был записан новый диск "The Gray Race" ('96), жесткий и агрессивный альбом, спродюссированный Риком Окашеком (Ric Ocasek). Чуть позже, в томже 96-ом году Граффин выпускает свой соло-альбом "American Lesion", сильно отличающийся от творчества BR. В 98-ом BR записывают альбом "No Substance" параллельно с защитой Грегом докторской диссертации по эволюционной биологии в Cornell University. Выход диска был отмечен серией концертов в небольших клубах, а затем выступлением в качестве хэдлайнеров на Warped Tour 98. С выходом "The New America" (2000, продюсер Todd Rundgren) закончился контракт с Atlantic Records на запись 4х альбомов. К слову, на диске присутствовал трэк "Believe It", сочиненный и записанный с Гуревичем. В этом же году парни возвращаются на Epitaph. В 2001-ом BR Бобби тяжело заболевает и группа остается без барабанщика. Серьезная потеря, но вскоре на его место приходит Брукс Вакерман (Suicidal Tendencies, Vandals). В 2002-ом, после 6 лет отлучения, в группу возвращается Брэтт Гуревич, вместе с которым записывается "The Process Of Belief". Альбом после некоторых не совсем успешных дисков периода Atlantic Records получился на редкость удачным, весьма долгое время продержавшись на вершине Billboard's Top 100 Alternative. Летом 2004-го выходит альбом "The Empire Strikes First". Отличная работа калифорнийских ветеранов, которая в очередной раз подтвердила статус нестареющих панк-звезд. В 2007 году на свет появился альбом New maps of hell, по звучанию ставший логическим продолжением The empire strikes first. Все те же высокие скорости, плотные риффы ритм-секции, мелодичный вокал Греффина. Bad Religion однозначно не разочаровали старых фанатов и не уронили свою планку. Хотя некоторые склонны считать, что альбом 2004 года The Empire Strikes First превзойти так и не удалось. Следуюший альбом группы сначала был назначен на весну 2009, потом перенесен на осень, а сейчас и вовсе обещается в 2010 году. Однако в том, что этот альбом будет, сомнений нет. Официальный сайт: http://www.badreligion.com Сайт на русском: http://www.badreligion.ru Скрыть...
Популярные аккорды Bad Religion:
алфавиту | просмотрам | случайно
  • Intro 
    E|-------3-------------3-----------3-----------3----------- 
    B|--4-------4-----4------4-----4-----4-----4------4-------- 
    C|----5-------------5------------5-----------5------------- 
    D|------------------------------------------------------5--…
  • Intro:
    
    ________________|________________|
    ________________|________________|
    6_6_6_6_6_6_6_6_|6_6_6_6_6_6_6_6_|
    6_6_6_6_6_6_6_6_|6_6_6_6_6_6_6_6_|
    4_4_4_4_4_4_4_4_|4_4_4_4_4_4_4_4_|
    ________________|________________|
    
    
    Riff…
  • Intro : 
    e|-------------------------------------------| 
    B|-------------------------------------------| 
    G|--9-9-9-9---7-7-7-7------------------------| x4 
    D|--9-9-9-9---7-7-7-7----7-7-7-7---9-9-9-9---| 
    A|--7-7-7-7---5-5-5-5----7-7-7-7---9-9-9-9---|…
  • Intro
    Guitar1
    e|-------------------------------|
    B|-------------------------------|
    G|--8~~--4-/-6--4--3-/-8~~~~--|
    D|--9~~--5-/-7--5--4-/-9~~~~--|
    A|--9~~--5-/-7--5--4-/-9~~~~--|
    E|--7~~--3-/-5--3--2-/-7~~~~--|
        ^…
  • Intro:
        C#5          G#5    E5   B5  F#5
    e|---------------------------------------------------------------------------|
    B|---------------------------------------------------------------------------|
    G|--6--6--6--6-----------9-------11--11--------------------------------------|
    D|--6--6--6--6---6--6----9----9--11--11--------------------------------------|
    A|--4--4--4--4---6--6----7----9---9---9--------------------------------------|
    E|---------------4--4---------7----------------------------------------------|
    
    Verse:…
  • verso
    
    -----------------------
    -----------------------
    -----------------------
    --------77-6-----------
    --9-7-9-55-4-7---------
    --7-5-7------5---------
    
    coro
    
    -----------------------------------
    -----------------------------------
    -----------------------------------
    -----764-------76-------------------
    -555-542-7-555-54-55555-3322222-7-9-
    -333-----5-333----33333-3322222-5-7-
    
    
    orden:
    
    parte…
  • Verse: 2x 3rd time 
    |------------------------------------|-----------------------------------------| 
    |------------------------------------|-----------------------------------------| 
    |-6-6-6-6--9-9-9-9-------------------|-6-6-6-6--9-9-9-9-----------10-10-10-10--|…
  • *** Song Structure *** 
    Intro Chorus 
    Riff A (x2) Riff E (x2) 
    Riff B Riff B 
    Riff E 
    Verse 1 Riff F 
    Riff C Riff G 
    Riff D 
    Riff C Solo 
    Riff D See Verse 
    
    Chorus Chorus 
    Riff E (x2) Riff E (x2) 
    Riff B Riff B 
    Riff E Riff…
  • Main rythm: 
    G A G A A# G A G A A# G A G A A# G F E (4x) 
    
    A 
    Life is a sive through which my anarchy strains 
    
    F 
    Resolving itself into words 
    
    A 
    Chaos is the score upon which reality is written 
    
    F 
    The timeless, whirling,…
  • Intro 
    e|-------------------------16p15p13--16p15p13--16p15p13--15h16p15--| 
    B|--------------13-13--14------------------------------------------| 
    G|--10--13--10-----------------------------------------------------| 
    D|-----------------------------------------------------------------|…
  • Standard tuning
    
    Intro            Main riff
    |----0-0-1-11-0-|-------------|
    |-1-11-1-1-11-1-|-------------|
    |-2-22-2-2-22-2-|-2-22--------|
    |-2-22-2-2-22-2-|-2-22--------|
    |-0-00-0-0-00-0-|-0-00--------|
    |---------------|------0-1--3-|…
  • Intro: 
    G-------------------------------------| 
    D-------------------------------------| 
    A--3-3-3333-222-0------------------| 
    E---------------------3-33-3-0-0-00-| 
    
    Verse: 
    E(H) 
    G(H) 
    D E(H) 
    E 
    C E C E 
    G(H) D 
    
    C E…
  • Intro
    e|-----------------------|---------|------------|
    B|-----------------------|---------|------------|
    G|-----------------------|---------|------------|
    D|--4-4-4--5-5-5---------|--8-8-8--|--10-10-10--|
    A|--2-2-2--3-3-3--7-7-7--|--6-6-6--|---8--8--8--|
    E|----------------5-5-5--|---------|------------|
    
    Verse
    e|----------------------------------------|
    B|----------------------------------------|
    G|----------------------------------------|
    D|--4-4-4-4-4-4-4-4--5-5-5-5-5-5-5-5/75--|
    A|--2-2-2-2-2-2-2-2--3-3-3-3-3-3-3-3/53--|
    E|----------------------------------------|
    
    e|--------------------------------------------|
    B|--------------------------------------------|
    G|--------------------------------------------|
    D|--4-4-4-4-4-4-4-4-----------------------/7--|
    A|--2-2-2-2-2-2-2-2--5-5-5-5-5-5-5-5/75/7/5--|
    E|-------------------3-3-3-3-3-3-3-3/53/5----|
    
    e|----------------------------------------------------------------------|
    B|----------------------------------------------------------------------|
    G|----------------------------------------------------------------------|
    D|--4-4-4-4-4-4-4-4-----------------------------------------------------|
    A|--2-2-2-2-2-2-2-2--7-7-7-7-7-7-7-7--5-5-5-5-5-5-5-5--4-4-4-4-4-4-4-4--|
    E|-------------------5-5-5-5-5-5-5-5--3-3-3-3-3-3-3-3--2-2-2-2-2-2-2-2--|
    
    Chorus
    e|----------------------------------------------------------------------|
    B|----------------------------------------------------------------------|
    G|----------------------------------------------------------------------|
    D|--4-4-4-4-4-4-4-4-----------------------------------------------------|
    A|--2-2-2-2-2-2-2-2--7-7-7-7-7-7-7-7--5-5-5-5-5-5-5-5--4-4-4-4-4-4-4-4--|
    E|-------------------5-5-5-5-5-5-5-5--3-3-3-3-3-3-3-3--2-2-2-2-2-2-2-2--|
    
    e|-----------------------------------------------------|
    B|-----------------------------------------------------|
    G|-----------------------------------------------------|
    D|-----------------------------------------------------|
    A|--5-5-5-5-5-5-5-5--7-7-7-7-7-7-7-7--9-9-9-9-9-9-9-9--|
    E|--3-3-3-3-3-3-3-3--5-5-5-5-5-5-5-5--7-7-7-7-7-7-7-7--|
    
    Outro
    e|-----------------------|---------|------------|------|
    B|-----------------------|---------|------------|------|
    G|-----------------------|---------|------------|------|
    D|--4-4-4--5-5-5---------|--8-8-8--|--10-10-10--|------|
    A|--2-2-2--3-3-3--7-7-7--|--6-6-6--|---8--8--8--|--9--|
    E|----------------5-5-5--|---------|------------|--7--|…
  • Chords: 
    E5 G5* G5 B5 C5 D5 E5^ 
    |-----------------------| 
    |-----------------------| 
    |-----------4--5--7--9--| 
    |--2--5--5--4--5--7--9--| 
    |--2--5--5--2--3--5--7--| 
    |--0--2--3--------------| 
    
    don't wanna have to 
    E5^…
  • Intro:
    G:-------------------------------------------------------------------|
    D:-------------------------------------------------------------------|
    A:--------------11---4-6-----------11---4-3--------------------------|
    E:---11----44-------------11--44-------------------------------------|
    
    VerSe
    G:-------------------------------------------------------------------|
    D:--------------3>------------------------------3>----------3>-------|
    A:--4>------6>------4>------6>---1>---4>----6>------4>--6>-----------|
    E:-----4>---------------4>---------------4>--------------------------|
    do…
  • Intro                       
    ------------------------------------
    ------------------------------------
    ------------------------------------
    --77/88-77/88-77/88-7777------------
    --77/88-77/88-77/88-7777------------
    --55/66-55/66-55/66-5555------------
    
    verse(x3)
    there's…
  • Rhythm 1: (4x) 
    F# F#(high) D 
    F# G# A 
    
    Rhythm 2: F# F#(high) D F# G# A F# F#(high) D B B/C# G# A 
    
    (w/ Rhythm 2) 2x: 
    Hey Mister, don't point at me 
    You shout rhetoric nonsense like a Pavlovian model 
    Responding to his…
  • Tuning: Standard E    eadgbe
       Ready? Let's Go!
    
          D5 C5 A#5 C5  A5 A#5 G5 G5(hi)
    e|----------------------------------------------------|
    B|----------------------------------------------------|
    G|----7--5------5-------------12----------------------|
    D|----7--5--8---5---7--4---5--12----PLAY…
  • TUNING: Standard (E A D G B e)
    
    INTRO/VERSE
    e|--------------------------------------------|
    B|--------------------------------------------|
    G|--77777777----------------------------------|
    D|--77777777--77777777--88888888--3333--5555--|
    A|--55555555--77777777--88888888--3333--5555--|
    E|------------55555555--66666666--1111--3333--|
    
    CHORUS
    e|-----------------------------------------------------|
    B|-----------------------------------------------------|
    G|--77777777--9999--10101010------------10101010-9999--|
    D|--77777777--9999--10101010--88888888--10101010-9999--|
    A|--55555555--7777--8-8-8-8---88888888--8-8-8-8--7777--|
    E|----------------------------66666666-----------------|…
  • ---------------------------------------------------------------------
    ---------------------------------------------------------------------
    -------9-----7-------------------------------------------------------
    -9-----9-x1--7-x1--10-----12-----------------------------------------
    -9-x4--7-----5-----10-x1--12-x1--------------------------------------
    -7------------------8-----10-----------------------------------------…
  • Intro: 
    
    E------------------------------------------------------------ 
    B------------------------------------------------------------ 
    G------------------------------------------------------------ 
    D--2-2-------------------------------------------------------…
  • G ---------------------------------
    D --------------------------5------
    A -------333333-----------57-57----
    E 55555----------333333--5------555
    
    Verse:
    G -----------------------------
    D ------------3----------------
    A -------33333-----------------
    E…
  • Intro:  D, C
    
    Intro Solo:
    ---------------------------------------------------------------
    ----------------------5--------8-7-5----------------------5----
    --4--4--4--5--4-------7--7---------7>5--5>4--4--h7-------------
    -------------------7-------------------------------------------
    ---------------------------------------------------------------
    ---------------------------------------------------------------
    
    Verse:…
  • е|--------------------------|
    B|--------------------------|
    G|--------------------5-----|
    D|--5--7--5--7--5--7--5--5--|   x4
    A|--5--7--5--7--5--7--3--5--|
    E|--3--5--3--5--3--5-----3--|
    
    e|------------------|
    B|------------------|
    G|-----------7------|
    D|---7---5---7---7--|…
  • Intro: 
    D / Bb C / 
    e--------------------- 
    B--------------------- 
    G--------------------- x4 
    D-7-777777------------ 
    A-5-555555-8----10---- 
    E----------6----8----- 
    
    Verse 1 (same figure as above) 
    D Bb C 
    Above us lay…
  • Intro:
    
    E|-------------(Play-4x)----------------|
    B|--------------------------------------|
    G|----------------10----------------10--|
    D|--101010101010--10--101010101010--10--|
    A|--101010101010---8--101010101010---8--|
    E|---8-8-8-8-8-8-------8-8-8-8-8-8------|
    
    Other…
  • *** Song Structure *** 
    Intro Chorus 
    Riff A (x3) Riff A (x3) 
    Riff B Riff B 
    Riff C Riff C 
    Riff D Riff D 
    
    Verse 1 Verse 2 
    Riff C Same As Verse 1 
    Riff D 
    Riff C Chours/Solo/Outro 
    Riff D Riff G (x5) 
    Riff E (x3) 
    Riff…
  • Main Rythm:
    (play the first first set of tab 3 times and the second set the 4th time)
    E|---------------------------------------|
    B|---------------------------------------|
    G|--------------------5-5-5----7-7-7-----|
    D|--7-7-7----3-3-3----5-5-5----7-7-7-----|…
  • Tuning: Standard
    
    INTRO:  (Just hold down this note, put on some vibrato, but do not strum it)
    
    e|--10~----------|
    B|---------------|
    G|---------------|
    D|---------------|
    A|---------------|
    E|---------------|
    
    THE BODY:…
  • Intro 
    e|----------------------------------| 
    B|----------------------------------| 
    G|----------------------------------| 
    D|----------------------------------| 
    A|--10-1010-10-10-10--9-99-9-9-9-99-| 
    E|---8--8-8--8--8--8--7-77-7-7-7-77-|…
  • Intro solo: riff: A G F G (x2) 
    e|--------------------------------------------5---3-5-3-8-7-5-3-----3h5-3--| 
    B|--------------------------------------------------------------6----------| 
    G|-2---0-2-0-5-4-2-0------0h2-0-0h2-5-4-2-0--------------------------------|…
  • Tuning : Normal 
    
    Verse: 
    e|----3--2------------------------------------------------------| 
    B|-1--3--3------------------------------------------------------| 
    G|-0--0--2----------------7-------------7h9p7-------------------|…
  • C# G# A B (3x) 
    C# G# A G# 
    
    A G# A B (2x) C# 
    
    
    A B C# 
    and progress is not intelligently planned, 
    
    A E F# G# 
    it's the facade of our heritage, the odor of our land, 
    
    
    (continue w/ lyrics) 
    they speak of progress, in…
  • Intro 
    e|-------------------------------------------------| 
    B|-------------------------------------------------| 
    G|-------------------------------------------------| 
    D|--------------4-4-4------------------------------|…
  • Intro: 
    e|--------------------------------------------------------------------|
    B|-------------*---*---played in the background of verse 1 and 2------|
    G|-------------9/79--------------------------------------------------|
    D|-------------9/79--------------------------------------------------|
    A|-------------7/57--------------------------------------------------|
    E|--------------------------------------------------------------------|
    
    Verse…
  • Intro 
    E------------------------------------------------------------------------ 
    B------------------------------------------------------------------------ 
    G-7-7-7---------7-7-7----------------------------------------------------…
  • Tuning: Standard E
    
    INTRO 
          Riff 1
         C5                            G#5       G5
    e|-------------------------------------------------------|
    B|-------------------------------------------------------|
    G|---5-5--5-5--5-5--5-5--5-5--5-5------------------------|
    D|---5-5--5-5--5-5--5-5--5-5--5-5--6-6--6-6--5-5--5-5----|
    A|---3-3--3-3--3-3--3-3--3-3--3-3--6-6--6-6--5-5--5-5----|
    E|---------------------------------4-4--4-4--3-3--3-3----|
    
    INTRO…
  • Riff 1
    e |--------------------------------------------------------
    B |--------------------------------------------------------
    G |--------------------------------------------------------
    D |--------------------------------------------------------
    A…
  • Intro 
    e|----------------|------| 
    B|----------------|------| 
    G|----------------|--12--| 
    D|-----8----------|------| 
    A|-5-8-6---5-8-10-|--10--| 
    E|-3-6-----3-6--8-|------| 
    
    Verse 
    e|--------------------------------------------------------------------|…
  • Rythm 1 (4x) 
    E----2------0-----2-----0---- 
    B----3------1-----3-----1---- 
    G----2------0-----2-----0---- 
    D--0-0------2-----0-----2---- 
    A--------2--3--2-----2--3---- 
    E---------------------------- 
    
    Rythm 2 (4x) 
    D F C…
  • Intro 
    e|----------------------------| 
    B|----------------------------| 
    G|----------------------------| 
    D|--5/85-5-5-5--5/85-5-5-5--| 
    A|--3/63-3-3-3--3/63-3-3-3--| 
    E|----------------------------| 
    
    Verse 
    e|-------------------------------------|…
  • Tuning: EADGBE
    
    Riff 1   The main riff...
         C5           G5    F5   G#5
    e|---------------------------------------------------------------------------|
    B|---------------------------------------------------------------------------|
    G|---5--5-5--5---------------------------------------------------------------|
    D|---5--5-5--5----5--5-3--3--6--6--------------------------------------------|
    A|---3--3-3--3----5--5-3--3--6--6--------------------------------------------|
    E|----------------3--3-1--1--4--4--------------------------------------------|
    
    Riff…
  • Intro 
    e|--------------------------| 
    B|--------------------------| 
    G|--------------------------| 
    D|-7-7777-7-x-5-----x-5-----| 
    A|-5-5555-5-x-3-x-5-x-3-x-7-| 
    E|--------------x-3-----x-5-| 
    
    Verse 
    e|-----------------------------------|…
  • Intro
    Guitar 1
    e----------------------------------------------------------------------------|
    b----------------------------------------------------------------------------|
    g----------------------------------------------------------------------------|
    d------7---9---5---9---7-------------7---9---5~/3~33333-2~-------------------|
    a-55--------------------------------55---------------------------------------|
    E----------------------------------------------------------------------------|
    
    Verse:Second…
  • Intro: 
    e|-------------------------------------| e|--------------------| 
    B|-------------------------------------| B|--------------------| 
    G|-2-2555555-5777777-2-2555555-5-------| G|-2-2----------------| 
    D|-2-2555555-5777777-2-2555555-5333333-|…
  • Standard Tuning
    
    (intro)
    |----------------------------------------------------|
    |---------------3------------------------------------|
    |----4----0h2---------5--4---------------------------|
    |----------------------------------------------------|
    |----------------------------------------------------|
    |----------------------------------------------------|
    
    (verse/bridge)
    |-----------------------------------------------------|
    |-----------------------------------------------------|
    |-----------------------------------------------------|
    |----9--10---9--10---9--10---9--10--12--10------------|
    |----9--10---9--10---9--10---9--10--12--10------------|
    |----7---8---7---8---7---8---7---8--10---8------------|…
  • Intro:
    AAA G CCC G AAA G C B  (4X)
    
    G             A   
    yea  they say theres a place free of trouble and care
    
    and you have to pass a test for to make it there
              A                                  F…
  • Intro 
    E|--------------------------------------------------- 
    B|--------------------------------------------------- 
    C|--------------------------------------------------- 
    D|--9-9--9-9--9-9--9--9-----------------10-10--9--7--…
  • Intro 
    e|----------------------------------------------------------------| 
    B|----10-10--10-10------------------------------------------------| 
    G|--------------------10-10--10-10----12-12--12-12----9-9--9-9----| 
    D|-----7--7---7--7------------------------------------------------|…
  • Intro 2X
    
    e ----------------|----------------|----------------|----------------|
    B ----------------|----------------|----------------|----------------|
    G -7-7-7-7--------|--10-10-10-10---|-14-14-14-16-14-|----------------|
    D…
  • Intro: 4x 
    e|---------------------------------------------------------------------------| 
    B|----*-----*-----*-----*----------------------------------------------------| 
    G|----5-----8--------8-------------------------------------------------------|…
  • Intro 
    e|---------------------------| 
    B|---------------------------| 
    G|---------------------------| 
    D|--12-12-12-12-12-12-12-12--| 
    A|--10-10-10-10-10-10-10-10--| 
    E|---------------------------| 
    
    Verse 
    e|----------------------------------------------|…
  • INTRo And VERSE and THing AFTER vERSE
    G:-------------------------------------------------------------------|
    D:-------------------2---------------2-------------------------------|
    A:-------4>---2--0>----4>---2---0>------2----------------------------|
    E:-------------------------------------------------------------------|
    do…
  • A GX4 
    A G A G 
    everybody wants do dance in a playpen, 
    A G F G 
    but nobody wants to play in my garden. 
    A G C F 
    I see the hippies on an angry line, 
    G 
    guess they don't get my meaning, 
    I'm enchanted by the birds in my…
  • F C D 
    
    main rythm: 
    E-------------------------------------------------- 
    B-------------------------------------------------- 
    G-2--2--2--2--------------2--2--2--2--------------- 
    D-2--2--2--2-----------2--2--2--2--2---------------…
  • Tuning: Standard
    
    INTRO lead
    e|-----------------------------------------------|
    B|-----------------------------------------------|
    G|-----------------------------------------------|
    D|-----------------------------------------------|
    A|--7--5--7--5--7--5p0--7--5--7--5--7--5--7--5---|
    E|-------------------------------------------------PICK…
  • Intro riff (twice)
    Verse
    Chorus
    Intro riff (once)
    Verse
    Chorus
    Intro riff (once)
    Solo
    Bridge (no guitar part)
    Intro riff (once)
    Chorus
    Intro riff (1st bar)
    
    ----------------------------------------------------------------------------
    
    Intro…
  • e|---------------------------------------------------------------------------| 
    B|---------------------------------------------------------------------------| 
    G|--------------------------------9---------------4--5-----------------------|…
  • Intro: 
    G:--------------------------------------------------------------- 
    D:---2-2-2-2--2-2--2-2-2-2----------------------------------------- 
    A:--------------------------------------------------------------- 
    E:---------------------------------------------------------------…
  • Tuning EADG
    
    Guitar Intro for Bass      (2x)
    G-5-5--5-5-1-13-3-5-5--5-5-1-13-3--------------
    D-7-7--7-7-3-35-5-7-7--7-7-3-35-5-0-5555555555-
    A------------------------------------------------
    E------------------------------------------------
    
    Verse…
  • Verse 1:
     C#m            A               B             C#m
    Automatons with business suits, swinging black boxes
    
     C#m             A             B     F#
    Sequestering the blueprints of daily life
    
     C#m                A…
  • Rhythm 1:
    E  C  G A  E
    
    
    (w/ Rhythm 1)
    So you say you gotta know why the world goes around
    And you can't find the truth in the things you've found
    And you're scared shitless 'cause evil abounds
    Come join us
    
    Well I heard…
  • *** Song Structure *** 
    Intro Chorus 
    Riff A (x4) Riff D (x1 & 1/2) 
    Riff E 
    Verse 1 Riff A (x2) 
    Riff B (x2) 
    Riff C Bridge (Half Time) 
    Riff B Riff F (x2) 
    Riff G 
    Verse 2 
    Riff B (x2) Solo (Double Time) 
    Riff C Riff A…
  • Intro and Verse
    e|--------------------------------------------------------------------
    B|--------------------------------------------------------------------
    G|-5---------7--------------------------------------------------------
    D|-5-7-5/7-7-7-7-7-5/7-7----------------------------------------------
    A|-3-7-5/7-7-5-7-7-5/7-7----------------------------------------------
    E|---5-3/5-5---5-5-3/5-5----------------------------------------------
    
    Pre…
  • Intro:
         A5
    e|---------|
    B|---------|
    G|---------|
    D|----7----|
    A|----7----|
    E|----5----|
    
    REST OF SONG (Keep repeating)
        A5          C5           G5          A5
    e|------------------------------------------------------|
    B|------------------------------------------------------|
    G|---------------5--5-5--5------------------------------|
    D|---7--7-7--7---5--5-5--5---5--5-5--5---7--7-7--7------|
    A|---7--7-7--7---3--3-3--3---5--5-5--5---7--7-7--7------|
    E|---5--5-5--5---------------3--3-3--3---5--5-5--5------|…
  • Intro 
    E|--5-5-5-5-5-5--5--5-5-5-5-5---------- 
    B|--6-6-6-6-6-6--6--6-6-6-6-6---------- 
    C|--5-5-5-5-5-5--5--5-5-5-5-5---------- 
    D|--7-7-7-7-7-7--7--7-7-7-7-7---------- 
    A|--5-5-5-5-5-5--5--5-5-5-5-5---------- 
    E|-------------------------------------…
  • Intro: switch-up: the quick part on either side of the verse 
    e|--2---2---------------|--------------------------------------------| 
    B|--5---4---------------|--------------------------------------------| 
    G|--4---4---------------|--9-----------------------------------------|…
  • Tuning: Standard E
    
    Intro Riff
    e|---------------------------------------------------------------------------|
    B|--5-6-3--3---3---5-6-3--3---3---5-6-3--3---3---5-6-3--3---3---5:::---------|
    G|-----------5--------------5--------------5--------------5------------------|
    D|---------------------------------------------------------------------------|
    A|---------------------------------------------------------------------------|
    E|---------------------------------------------------------------------------|
    
    INTRO:…
  • Intro/chorus: 
    e|---------------------------------------------------------------------------| 
    B|---------------------------------------------------------------------------| 
    G|---------------------------------------------------------------------------|…
  • C D X4
    
        C       D              C      D         A# G C A
    Parched, cracked mouths, empty swollen guts
    Sun-Baked pavement encroaches on us
    Haves and have-nots together at last
    Brutally engaged in mortal kombat
    
    A#  F…
  • Intro 
    e|-----------------------------------------------------------------------| 
    B|-----------------------------------------------------------------------| 
    G|-----------------------------------------------------------------------|…
  • this song is really fast and its kinda hard to change your power chords this quickly 
    but if i can do it anybody can
    
    play once(this part 1 of the intro)
    -------------------------------------
    -------------------------------------
    -------------------------------------
    -2-22-22--55-22-5-77-55-7-88---------
    -2-22-22--55-22-5-77-55-7-88---------
    -0-00-00--33-00-3-55-33-5-66---------
    
    play…
  • *** Song Structure *** 
    Intro Solo 
    Riff A Riff D (x4) 
    Riff B Riff E 
    Riff C Riff D (x3) 
    Riff D (x2) Riff H 
    
    Verse 1 Bridge 
    Riff D (x4) Riff I 
    Riff E Riff J 
    Riff D (x3) Riff I 
    Riff F Riff J 
    Riff I 
    Chorus Riff K…
  • Verse: 
    G--------------------------------| 
    D--3-2---------0-3-2-------------| 
    A------333-2-3-------33-222-0----| 
    E--------------------------------| 
    
    Chorus: 
    G--------------------|-------------------| 
    D--------------------|-------------------|…
  • INTRO:first guitar X4, second guitar X8 
    e|-----------------|----------------------------------------------------------| 
    B|-----------------|----------------------------------------------------------| 
    G|---5-5-----3-----|--5---6---------------------------------------------------|…
  • Main
    g--------------------
    d--------------------
    a--555555-------888--
    e---------666--------
    
    chorus
    g--------------------
    d--------------------
    a--555-888-----------
    e----------666--888--
    
    and at that last smash I play…
  • Intro 
    e|-----------------------------------------------------| 
    B|-----------------------------------------------------| 
    G|-----------------------------------------------------| 
    D|-------------74-4-4-4-------------7-7-7-7-----------|…
  • e|-----------------------------------|
    B|-----------------------------------|
    G|-11-11-11-11-10-10-10-10--8-8-8-8--|
    D|-11-11-11-11-10-10-10-10--8-8-8-8--|
    A|--9--9--9--9--8--8--8--8--6-6-6-6--|
    E|-----------------------------------|
    
    
    A#…
  • Intro 
    e|--------------------------------------------------------------------------------------| 
    B|--------------------------------------------------------------------------------------| 
    G|--------------------------------------------------------------------------------------|…
  • A 
    |----------------------------------------------------| 
    |----------------------------------------------------| 
    |----------------------------------------------------| 
    |---7-7-7-7---9-9-9-9---10-10-10-10----12-12-12-12---|…
  • Low to high : Eb Ab Db Gb Bb eb
    
          A#     B     C      C#     D#     e      e#    F#      f#      G
    eb--------------------------------------------------------------------------|
       -------------------------------------------------------------------------|…
  • Verse, intro 1, 2 3rd ending
    e|--------------|-------|-------------------------------------|
    b|--------------|-------|-------------------------------------|
    g|-7--9--10--12-|-------|-------------------------------------|
    d|--------------|-8--7--|-8--10-------------------------------|
    a|-5--7--8---10-|-8--7--|-8--10-------------------------------|
    e|--------------|-6--5--|-6--8--------------------------------|
    
    chorus
    |------------------------------------------------------------------|
    |------------------------------------------------------------------|
    |--7-7-7-7--3-3-3-3--5-5-5-5--7-7-7-7--7-7-7-7--10-10-10-10--------|
    |--7-7-7-7--3-3-3-3--5-5-5-5--7-7-7-7--7-7-7-7--10-10-10-10--------|
    |--5-5-5-5--1-1-1-1--3-3-3-3--5-5-5-5--5-5-5-5--8--8--8--8---------|
    |------------------------------------------------------------------|
    
    |------------------------------------------------------------------|
    |------------------------------------------------------------------|
    |-5-5-5-5--7-7-7-7-----------10-10-10-10-------------7-7-7-7-------|
    |-5-5-5-5--7-7-7-7---8-8-8-8-10-10-10-10-10-10-10-10-7-7-7-7-------|
    |-3-3-3-3--5-5-5-5---8-8-8-8--8--8--8--8-10-10-10-10-5-5-5-5-------|
    |--------------------6-6-6-6-------------8--8--8--8----------------|
    
    |------------------------------------------------------------------|
    |------------------------------------------------------------------|
    |------------------3-3-3-3-3-3-3-3---5-----------------------------|
    |-3-3-3-3--5-5-5-5-3-3-3-3-3-3-3-3---5-----------------------------|
    |-3-3-3-3--5-5-5-5-1-1-1-1-1-1-1-1---3-----------------------------|
    |-1-1-1-1--3-3-3-3-------------------------------------------------|
    
    bridge
    |------------------------------------------------------------------|
    |------------------------------------------------------------------|
    |--12-12-12-12-12-12-12-12-10-10-10-10-10-10-10-10-----------------|
    |--12-12-12-12-12-12-12-12-10-10-10-10-10-10-10-10-----------------|
    |--10-10-10-10-10-10-10-10--8--8--8--8--8--8--8--8-----------------|
    |------------------------------------------------------------------|
    
    solo
    |------------------------------------------------------------------|
    |------------------------------------)-13-)-----------/15--15------|
    |--10--9-10-12--10-9-10-9----------12------12--10-12---------------|
    |-------------------------12-10-12---------------------------------|
    |------------------------------------------------------------------|
    |------------------------------------------------------------------|
    
    |-------------13-12------------------------------------------------|
    |-15-15-13-15-------13-15--15-13-----------------------------------|
    |------------------------------------------------------------------|
    |------------------------------------------------------------------|
    |------------------------------------------------------------------|
    |------------------------------------------------------------------|
    
    2nd…
  • |-0------------1--------------3------------------------------------------
    |-1------------1--------------3-------------------------5--4-------------
    |-2------------2--------------0-------------------------5--4-------------
    |-2------------3--------------0-------------------------5--4-------------
    |-0------------3--------------x-------------------------3--2-------------
    |--------------1--------------3------------------------------------------…
  • Intro 
    e|--0-0-0--xx------------------------3-3-3------3-3-3------0-0-0--| 
    B|--0-0-0--xx------------------------3-3-3------3-3-3------0-0-0--| 
    G|--1-1-1--xx------------------------4-4-4------4-4-4------1-1-1--| 
    D|--2-2-2--xx--4-4-4--xx--4-4-4--xx--5-5-5--xx--5-5-5--xx--2-2-2--|…
  • INTRO: 
    
    e|--------------------------------------------------------------------| 
    B|--------------------------------------------------------------------| 
    G|o---------------------------5-5-5-5---------------------------------|…
  • Intro 
    e|--0-0--0~~---0-0---0~~--| 
    B|--2-2--2~~---1-1---1~~--| 
    G|--3-3--3~~---2-2---0~~--| 
    D|--0-0--0~~---3-3---2~~--| 
    A|-------------------3~~--| 
    E|------------------------| 
    
    e|-------------------------------------------------------|…
  • Intro
    e|--------------------|
    B|--------------------|
    G|--------------------|
    D|---5-5-5-5-5-5-5-5--|
    A|---7-7-7-7-7-7-7-7--|
    E|--------------------|
    
    e|--------------------------------------|
    B|--------------------------------------|
    G|--------------------------------------|
    D|-----------------------------7-7-7-7--|
    A|--7-7-7-7--5-5-5-5--3-3-3-3--5-5-5-5--|
    E|--5-5-5-5--3-3-3-3--1-1-1-1-----------|
    
    e|------------------------------|
    B|------------------------------|
    G|------------------------------|
    D|--9-9-99-9-9-9-99-9-9-99-9-9--|
    A|--7-7-77-7-7-7-77-7-7-77-7-7--|
    E|------------------------------|
    
    Verse…
  • A A# A C 
    see the fight, old men crying, deny their ruin. 
    watch them try. the cynic laughs at the optimist's closed eyes. 
    D A# C 
    darkness falls, curtain calls, the cynic's beer soon overflows. 
    other watches, has a drink,…
  • INTRO VERSE 
    e|-------------------------|-------------------------------------------------| 
    B|-------------------------|-------------------------------------------------| 
    G|-------------------------|-5555-3333-2222------5555------------------------|…
  • Intro 
    e|--------------------------------------------------------| 
    B|--------------------------------------------------------| 
    G|--------------------------------------------------------| 
    D|-------------10-10-10-10-10-------------12-12-12-12-12--|…
  • Intro: 
    E Dis Cis B E Fis 
    
    B Cis 
    I Can See My Teenage Father Standing Straight On A Desolate Corner 
    Dis E 
    In The Shadow Of Tentacled Towers By The Red Light Of America. 
    B Cis Dis Fis 
    I Imagine How His Mother Felt When…
  • Intro 
    e|-------------------------------------------------| 
    B|-------------------------------------------------| 
    G|-------------------------------------------------| 
    D|-----------------------------------------8-8-----|…
  • Tuning: E Standard
    
    INTRO 
    e|----------------------------------------------------------------------------|
    B|----------------------------------------------------------------------------|
    G|--10-10-10-10-10--8------------8----10-10-10-10-10--8------------8-8-8-8----|
    D|--10-10-10-10-10--8--8-8-8-8-8-8----10-10-10-10-10--8--8-8-8-8-8-8-8-8-8----|
    A|---8--8--8--8--8--6--8-8-8-8-8-6-----8--8--8--8--8--6--8-8-8-8-8-6-6-6-6----|
    E|---------------------6-6-6-6-6-------------------------6-6-6-6-6------------|
    
    INTRO…
  • Tuning: Standard
    
    INTRO
    e|-------------------------------------------------------------|
    B|-------------------------------------------------------------|
    G|-----------------9-----------------9----------------9--------|
    D|--9-9-9/109-9-9-9--9-9-9/109-9-9-9-9-9-9/109-9-9-9-9-9-9--|
    A|--9-9-9/109-9-9-7--9-9-9/109-9-9-7-9-9-9/109-9-9-7-9-9-9--|
    E|--7-7-7/-87-7-7----7-7-7/-87-7-7---7-7-7/-87-7-7---7-7-7--|
    
    VERSE
    e|---------------------------------------------------------------------------|
    B|---------------------------------------------------------------------------|
    G|--7-7-7-7---------9-9-9-9-------------------------7-7-7-7-7-7-7-7----------|
    D|--7-7-7-7-7-7-7-7-9-9-9-9-4-4-4-4-5-5-5-5-5-5-5-5-7-7-7-7-7-7-7-7-5-5-5-5--|
    A|--5-5-5-5-7-7-7-7-7-7-7-7-4-4-4-4-5-5-5-5-5-5-5-5-5-5-5-5-5-5-5-5-5-5-5-5--|
    E|----------5-5-5-5---------2-2-2-2-3-3-3-3-3-3-3-3-----------------3-3-3-3--|
    
    e|----------------------------------------------------|
    B|----------------------------------------------------|
    G|--7-7-7-7-------------------------------------------|
    D|--7-7-7-7-7-7-7-7:---9-9-9---9-9-9---9-9-9---9-9-9--|
    A|--5-5-5-5-7-7-7-7:---9-9-9---9-9-9---9-9-9---9-9-9--|
    E|----------5-5-5-5:---7-7-7---7-7-7---7-7-7---7-7-7--|
    
    PRECHORUS…
  • Guitar: 
    Guitar1 
    
    Intro 
    e|--5-5-5-5-5-5-5-5-5-5-5-5-5-5-5-5--| 
    B|--5-5-5-5-5-5-5-5-5-5-5-5-5-5-5-5--| 
    G|--6-6-6-6-6-6-6-6-6-6-6-6-6-6-6-6--| 
    D|--5-5-5-5-5-5-5-5-5-5-5-5-5-5-5-5--| 
    A|--7-7-7-7-7-7-7-7-7-7-7-7-7-7-7-7--|…
  • Intro Bridge 
    Riff A (x4) Riff F (x4) 
    Riff B (x3) Riff C (x4) 
    Riff C 
    Verse 3 
    Verse 1 Riff D (x4) 
    Riff D Riff A (x2) 
    Riff E 
    Riff D Outro 
    Riff E Riff B (x4) 
    Riff C (x4) Riff G 
    
    Verse 2 Notes: 
    Riff D I'm not 100%…
  • Intro 
    e|----------------------------------------------------------------------------| 
    B|----------------------------------------------------------------------------| 
    G|--13-13-13-13-13-13-13-13-13--11--13-13-13-13-13-13-13-13-13--11------------|…
  • I am still working on the solo so just be patient
    
    ---------------------------------------------------------
    ---------------------------------------------------------
    ---------5-55-55-7-77-77---------------------------------
    -2-22-22-5-55-55-7-77-77-5-55-55-5-55-55-5-55-55-5-55-55-
    -2-22-22-3-33-33-5-55-55-5-55-55-5-55-55-5-55-55-5-55-55-
    -0-00-00-----------------3-33-33-3-33-33-3-33-33-3-33-33-
    
    ---------------------------------------------------------
    ---------------------------------------------------------
    ---------5-55-55-9-99-99-7-77-77-7-77-77-7-77-77-7-77-77-
    -5-55-55-5-55-55-9-99-99-7-77-77-7-77-77-7-77-77-7-77-77-
    -5-55-55-3-33-33-7-77-77-5-55-55-5-55-55-5-55-55-5-55-55-
    -3-33-33-------------------------------------------------
    
    ---------------------------------------------------------
    ---------------------------------------------------------
    ---------5-55-55-7-77-77-9-99-99-9-99-99-9-99-99-9-99-99-
    -5-55-55-5-55-55-7-77-77-9-99-99-9-99-99-9-99-99-9-99-99-
    -5-55-55-3-33-33-5-55-55-7-77-77-7-77-77-7-77-77-7-77-77-
    -3-33-33-------------------------------------------------
    
    -------------------------------------
    -------------------------------------
    ---------5-55-55-7-77-77-------------
    -5-55-55-5-55-55-7-77-77-------------
    -5-55-55-3-33-33-5-55-55-2-4---------
    -3-33-33-----------------3-2---------
    play…
  • Verse: 
    e|----------------------------------| 
    B|----------------------------------| 
    G|----------------------------------| 
    D|--9-9-9-12-12-12------------------| 4X 
    A|--7-7-7-10-10-10--12-12-12-7-7-7--| / 
    E|------------------10-10-10-5-5-5--|/…
  • Intro (Play 4 times)
    G-------------------------
    D-------------------------
    A--------5-5-----7--7-7-7-
    E--7-7-------5-5----------
    
    
    Verse
    G------------------------
    D------------------------
    A--------5-5-----7--7-7-7
    E--7-7-------5-5---------
    
    
    Chorus
    G--------------------------------------
    D--------------------------------------
    A-----------------------------------7--
    E--3----5----3----5----3----5----------
    
    G--------------------------------------
    D--------------------------------------
    A--------------------------------------
    E--7----5----3----5----7----5----3----5
    
    
    Outro
    G-----------------------------------------------------------
    D-----------------------------------------------------------
    A-----------------------------------------------------7----5
    E--7----5----3----5----7----5----3----5----7-----5----------
    
    G-----------------------------------
    D-----------------------------------
    A-------7----5-------------7----5---
    E--7-------------------7------------…
  • A#,A#,A#,A#, ^ G#,G# X2                        *-^-(momentarial gap)
    A#,A#,A#,A#, ^ G#,G#, ^ A#  } opening riff
    
    (The amount and timing of the notes is up to you)
    e--3-5-6-5-3-3-5-6-5-8----
    B-------------------------
     Chords…
  • Intro:
    G:--------------------------------------------------------------- 
    D:--------------------------------------------------------------- 
    A:---2>--3>--0>--3>--5>-------2/3-2/3-2/3-2/3---------------- 
    E:----------------------------0>---------------------------------------…
  • Intro/ main riff 
    e|----------------------------------| 
    B|----------------------------------| 
    G|-10-10-8--6-6-4---10-10-8--6-6-4--| 
    D|-10-10-8--6-6-4---10-10-8--6-6-4--| 
    A|--8--8-6--4-4-3----8--8-6--4-4-3--| 
    E|----------------------------------|…
  • Intro 
    (not exact number of strums) 
    D C Bb A D F Bb A 
    e|-2--0--1--0--2--1--1--0---| 
    B|-3--1--3--2--3--1--3--2---| 
    G|-2--0--3--2--2--2--3--2---| 
    D|-0--2--3--2--0--3--3--2---| 
    A|----3-----0-----3-----0---| 
    E|--------------------------|…
  • Rhytm A                                                               
    |------------------------------------------------------------------------
    |--8--6--------6---8--6--9-----------------------------------------------
    |--8--6--5--8--6---8--6--8--4-6-4-6-8-6----------------------------------
    |--8--6--6--9--6---8--6--6--4-6-4-6-8-6----------------------------------
    |--6--4--6--9--4---6--4--6--2-4-2-4-6-4----------------------------------
    |--------4--7------------------------------------------------------------…
  • Solo 1:
    
    0:33 to 0:40
    e|---------------------------------------------------------------------------------------------------------|
    B|-----7b(9)--7---10--10p7-------------------------------------------------------10p7----------------------|
    G|---------------------------------…
  • Intro 
    E|------------------------------------------- 
    B|------------------------------------------- 
    C|------------------------------------------- 
    D|--5----5-5-5-5--7-7-7-7--7--7--10--10-10--- 
    A|--5----5-5-5-5--7-7-7-7--5--7--8---10-10---…
  • INTRO: 
    Guitar2: Bm A x4 G A Bm F# 
    Guitar1: 
    e--------------------|--------------------------------------------------------- 
    B--------------------|--------------------------------------------------------- 
    G--------------------|--------------------------4-4-4-4-4-4-4-4----------------…
  • Verse:
    e|---------------------------------------------------------------------------|
    B|---------------------------------------------------------------------------|
    G|---------------------9-9-9-9-9-9-9-9---------------------------------------|
    D|-10-9-10-9-10-9-10-9-9-9-9-9-9-9-9-9---------------------------------------|
    A|-10-9-10-9-10-9-10-9-7-7-7-7-7-7-7-7---------------------------------------|
    D|-10-9-10-9-10-9-10-9-------------------------------------------------------|
    
    Chorus:
    e|---------------------------------------------------------------------------|
    B|---------------------------------------------------------------------------|
    G|-12-12-12-12-7-7-7-7-9-9-9-9-9-9-9-9---------------------------------------|
    D|-12-12-12-12-7-7-7-7-9-9-9-9-9-9-9-9---------------------------------------|
    A|-10-10-10-10-5-5-5-5-7-7-7-7-7-7-7-7---------------------------------------|
    D|---------------------------------------------------------------------------|…
  • 3x						 1x
    |-----------------------------||--------------------------|
    |-----------------------------||--------------------------|
    |---------9-------------7---7-||---------9------PICKSLIDE-|
    |-9-9-9-9-9-9-7-5-5-5-7-7-7-7-||-9-9-9-9-9-9-7------------|
    |-9-9-9-9-7-9-7-5-5-5-7-5-7-5-||-9-9-9-9-7-9-7------------|…
  • Verse: Play 4x
    
    E|------------------------------------------------------|
    B|------------------------------------------------------|
    G|--------------88888888--------------------------------|
    D|--5555--8888--88888888--5555--8888--1010101010101010--|
    A|--5555--8888--66666666--5555--8888--1010101010101010--|
    E|--3333--6666------------3333--6666---8-8-8-8-8-8-8-8--|
    
    Chorus:
    
    E|-------------------------(2x)-----------------------------|
    B|----------------------------------------------------------|
    G|----------------888888888888----------------555555555555--|
    D|--555555555555--888888888888--333333333333--555555555555--|
    A|--555555555555--666666666666--333333333333--333333333333--|
    E|--333333333333----------------111111111111----------------|
    
    (And…
  • 2xs 
    E------------------------------- 
    B------------------------------- 
    G--------------0---------------- 
    D----------0-2---2-------------- 
    A--3---2-3---------------------- 
    E------------------------------- 
    
    3000 miles…
  • E|------------------------------------------------------
    B|------------------------------------------------------
    C|------------------------------------------------------  ...times five
    D|--5-5-5-5-5-5--8-8-8-8--10-10-10-10--10-10--10--8-----
    A|--5-5-5-5-5-5--8-8-8-8--10-10-10-10--8--8---10--8-----
    E|--3-3-3-3-3-3--6-6-6-6--8--8--8--8----------8---6-----
    
    E|-----------------------
    B|-----------------------
    C|-----------------------
    D|--5-5-5-5-5-5-5-5--5---
    A|-----------------------
    E|-----------------------…
  • Intro 
    e|---------------------------| 
    B|---------------------------| 
    G|---------------------------| 
    D|--9-9-9-9-9-97/9--5-5-----| 
    A|--7-7-7-7-7-75/7--3-3--5--| 
    E|------------------------3--| 
    
    Verse 
    e|---------------------------|…
  • *** Song Structure *** 
    Intro Verse 2 
    Riff A (x3) Same As Verse 1 
    Riff B 
    Pre-Chorus 
    Verse 1 Same As Before 
    Riff A (x7) 
    Riff B Chorus 
    Same As Before 
    Pre-Chorus 
    Riff C Solo 
    Riff D Riff F (x3) 
    Riff E 
    Outro 
    Chorus…
  • INTRO
    Guitar 1 - Lead Guitar
    E:--------------------------------------------------|
    B:--------------------------------------------------|
    G:-10-1010-9999--77777799--1010-10--9999--77777799--|
    D:--------------------------------------------------|
    A:-8--8-8--7777--55555577--8--8-8---7777--55555577--|
    E:--------------------------------------------------|
    
    E:---------------------|
    B:---------------------|
    G:-5-555555555--1095-|
    D:---------------------|
    A:-3-333333333---893-|
    E:---------------------|
    
    Guitar…
  • Intro 
    E|--------------------------------------------------------     ------- 
    B|--6-6-6-6-6-6--3-3-3-3-3-3--6-6-6-6-6-6--3-3-3-3-3-3----     ------- 
    C|--3-3-3-3-3-3--2-2-2-2-2-2--3-3-3-3-3-3--2-2-2-2-2-2----    -------…
  • Intro: Am }x4
    
              Am                          F
    There's a place where everyone can be happy,
              C                                         G
    it's the most beautiful place in the whole fuckin' world,…
Наверх