Аккорды Bajaga i Instruktori - Tisina

Добавлено: @romashka
Дата добавления: 22 Декабря 2019г.
Рейтинг:
0.0
Просмотров: 97
Транспонировать - +
Intro and beginnig:
e|---------------------------------------|
B|------1-1-----1-1-----3-3-------3-3----|
G|-----2---2---0---0---0---0-----0---0---|
D|----2-----2-2-----2-------0---------0--|
A|---0-------3--------2---------2--------|
E|-------------------3-------3-3---------|

Am               C                 G
Mrak se spustio u kap rano jutro kao slap
G
Ulazi u sobu
Am               C                 G
Dal' si ikad pitala tamne senke zidova
G
Ujutru gde odu
Am               C                 G
Oci su ti sklopljene usne su ti umorne
G
Ne ljubi me njima
Am               C                 G
Nisu Cvorci pevali dok je iznad krovova
G
Svirala tisina.
 
Am               C                 G
Hajde boze budi drug pa okreni jedan krug
G
U nazad planetu
Am               C                 G
Noc je kratko trajala a nama je trebala
G
Najduza na svetu
Am               C                 G
U mom oku samo kap u mom srcu samo stud
G
Inje i prasina
Am               C                 G
Nisu Cvorci pevali dok je iznad krovova
G
Svirala tisina.
 
Am               C                 G
U cik zore zvizdi voz njime odlazim u Oz
G
Necu da se vratim
Am               C                 G
Sto god tebi napisem pocepam i obrisem
G
Al ti moras znati
Am               C               G
Nisi se probudila zato nisi videla
G
Igrale su sene,
Am               C                 G
Nek te dobri drugovi i kraljevski orlovi
G
Cuvaju od mene
 
Solo:
verzija 1:
e|------------------------------------------------------------|
B|------------------------------------------------------------|
G|------------------------------------------------------------|
D|-3-h5-s7-h8-p5-h8-8-s12-10v-8-p7-3v-(-3-s5v)----------------|
A|------------------------------------------------------------|
E|------------------------------------------------------------|
 
e|------------------------------------------------------------|
B|------------------------------------------------------------|
G|----------------------------14-14-p12-14-p12-14-14-12-14v---|
D|-3-h5-s7-h8-p5-h8-8-s12-10v---------------------------------|
A|------------------------------------------------------------|
E|------------------------------------------------------------|
 
e|----------------------------------------------------------------------|
B|----------------------------------------------------------------------|
G|------------------------------------12-s16-14v-12-h14-p12-10v-7-5-3-0-|
D|-3-h5-s7-h8-p5-h8-8-s12-10v-8-p7-3v-----------------------------------|
A|----------------------------------------------------------------------|
E|----------------------------------------------------------------------|
Наверх