Аккорды Balthazar - Nightclub

Добавлено: @romashka
Дата добавления: 08 Октября 2018г.
Рейтинг:
0.0
Просмотров: 9
Транспонировать - +
(Lead Guitar)

Intro:
     A
e|-----------------------------------|
B|-----------------------------------|
G|-----------------------------------|
D|-----------------------------------|
A|-------4-------4-------4-------4---|
E|---5-----5-5-----5---5---5-5-5---5-|

     F#m           D                   A
e|---------------------------------------------------------------------|
B|---------------------------------------------------------------------|
G|---------------------------------------------------------------------|
D|---------------------------------------------------------------------|  x2
A|------------------------9-------9--------4-------4-------4-------4---|
E|---2---5-2-2---5/10--10---10-10---10-5-----5-5-----5---5---5-5-----5-|

Verse:
     F#m           D                 A
e|-------------------------------------------------------------------|
B|-------------------------------------------------------------------|
G|-------------------------------------------------------------------|
D|-----------------------4-------4-----------------------------------|
A|-----------------5---5---5-5-----5-----4-------4-------4-------4---|
E|---2---5-2-2---5-------------------5-----5-5-----5---5---5-5-----5-|

Bridge: (violin part)
     F#m              A            D                Bm
e|--------------------------------------------------------|
B|---1---2---/9---7---2------------1---2---/9---7---2-----|
G|----------------------------------------------------4-2-|
D|--------------------------------------------------------|
A|--------------------------------------------------------|
E|--------------------------------------------------------|

Outro:
     F#m
e|-------------------------------------|
B|-------------------------------------|
G|-------------------------------------|
D|-------------------------------------|
A|-------------------------------------|
E|---2---5-2-2---5-2---2-5-2-2-2-5-2-2-|

A F        

Chords:
     F#m   D     A     Bm
e|---2-----2-----0-----2---|
B|---2-----3-----2-----3---|
G|---2-----2-----2-----4---|
D|---4-----0-----2-----4---|
A|---4-----------0-----2---|
E|---2---------------------|
comments powered by Disqus
Наверх