Аккорды Beddy Rays - Wait a While

Добавлено: @romashka
Дата добавления: 10 Марта 2024г.
Рейтинг:
0.0
Просмотров: 46
[Chords]
B+  799877
G#m 466444
E   022100
B   x24442

[Instrumental Intro]
| B+ | G#m | E | B |
| B+ | G#m | E | B |

   B+
e|-----------------|-----------------|
B|-----7-----------|-9---------------|
G|-8-------------8-|-----------------|
D|-----------------|-----------------|
A|-----------------|-----------------|
E|-----------------|-----------------|

  G#m
e|-----------------|-----------------|
B|-----7-----------|-9---------------|
G|-8-------------8-|-----------------|
D|-----------------|-----------------|
A|-----------------|-----------------|
E|-----------------|-----------------|

   E
e|-----7-----------|-9---------------|
B|-9-------------9-|-----------------|
G|-----------------|-----------------|
D|-----------------|-----------------|
A|-----------------|-----------------|
E|-----------------|-----------------|

   B
e|-----------------|-----------------|
B|-----7-----------|-9---------------|
G|-8-------------8-|-----------------|
D|-----------------|-----------------|
A|-----------------|-----------------|
E|-----------------|-----------------|

   B+
e|-----------------|-----------------|
B|-----7-----------|-9---------------|
G|-8-------------8-|-----------------|
D|-----------------|-----------------|
A|-----------------|-----------------|
E|-----------------|-----------------|

  G#m
e|-----------------|-----------------|
B|-----7-----------|-9---------------|
G|-8-------------8-|-----------------|
D|-----------------|-----------------|
A|-----------------|-----------------|
E|-----------------|-----------------|

   E
e|-----7-----------|-9---------------|
B|-9-------------9-|-----------------|
G|-----------------|-----------------|
D|-----------------|-----------------|
A|-----------------|-----------------|
E|-----------------|-----------------|

   B
e|-11---9---7---9---|-7---------------|
B|------------------|-----------------|
G|------------------|-----------------|
D|------------------|-----------------|
A|------------------|-----------------|
E|------------------|-----------------|

[Verse 1]
B+              G#m            E                      B
- Give up on it brother, she's only messing with your head
B+                G#m                E                 B
- Been down these roads before, they only lead to dead ends
B+                 G#m               E                     B
- Pick up from the gutter, there's a car here full of your friends
B+                      G#m               E                B
- Don't think twice for good advice, head up, come on, get in

[Pre-Chorus]
           C#m          E                B                    F#
Feels like nothin's up, that aint right, walls are closing on in
            C#m       E              G#m                  F#
Picking all up again, thick as skin, here's a place to begin
          B                       C#m
Want some piece of mine from that exit line?
           G#m                      E
As there's no collision, there's no need for nothing

[Chorus]
          B                       C#m
How's the isle of need? You're so blind I see
         G#m                  A                   B   G#m
How it's all erupting? Wait a while gotta hold on me
       E                   B
Wait a while gotta hold on me

(** Second B in chorus starts intro-riff **)

[Verse 2]
B+              G#m          E                      B
- Give up on it sister, he's only f*cking with your head
B+                         G#m                E                    B
- Got no time for your old man out there, the ins and outs of your bed
B+                 G#m       E                 B
- Now loosing your lover, is hard enough as it is
B+               G#m              E                  B
- Know your work just how fast is don't you ever forget

[Pre-Chorus]
           C#m          E                B                    F#
Feels like nothin's up, that aint right, walls are closing on in
            C#m       E              G#m                  F#
Picking all up again, thick as skin, here's a place to begin
          B                       C#m
Want some piece of mine from that exit line?
           G#m                      E
As there's no collision, there's no need for nothing

[Chorus]
          B                       C#m
How's the isle of need? You're so blind I see
         G#m                  A                   B   G#m
How it's all erupting? Wait a while gotta hold on me

[Outro]
       G#m             E              B
Wait a while, or I can walk the other way
E          B          E                         B
- It's too late to ca-all - It's too late to ca-all
             G#m                E                B
I dont wanna get caught up this way, this wicked game
E          B          E                         B
- It's too late to ca-all - It's too late to ca-all
E          B          E                         B
- It's too late to ca-all - It's too late to ca-all
E          B          E              B
- It's too late to ca-all - It's too late...  
+
-
Тональность
-
0
+
Шрифт
-
0
+
Прокрутка
-
0
+
Стоп
Наверх