Аккорды Bernard Fanning - Tell Me How It Ends

Добавлено: @romashka
Дата добавления: 06 Февраля 2024г.
Рейтинг:
0.0
Просмотров: 83
Chords Used:
A C F D G Asus2

Intro:
-------------------|
-------------------|
-------------------| x4 Riff 1
-------------------|
-0-0-0-0-0-0-0-0---|
----------------0--|
and then
-------------------------|
-------------------------|
-------------------------| x4 Riff 2 (Same for the verses)
-------------------------|
-0-0-0-0-0-0-0-5-5-10-10-|
-------------------------|

Verse 1:
-----------------------------|
-----------------------------|
------------------------ x 8-|
-----------------------------|
-0-0-0-0-0-0-0-5-5-10-10-----|
-----------------------------|
Did you ever feel you'd never get ahead
Wheels are spinning, everyone is overtaking you
Avert your eyes from the game just a moment
Next you know, you're spat back out the tube

Pre Chorus:
G
Boil the kettle, read the paper
C
Pick up what you miss
Asus2                              D
Pick up what you miss from the daily news

Chrous:
          A
You don't get what you want
          C
You don't want what you get
          F
Hard as I try to be satisfied
  D
I haven't found it yet
       A
What I need is a friend
   C
To jump to my defence
F                   D
Tell me how it ends
D (continued)
Tell me how it ends

Pre-Verse: Play Intro Riff 1 x 2

Verse 2: >Follow same riff as verse 1
Lay your money down
Lose an arm a leg a pile
Nobody cares what will become of you
Throw your weight around your little patch of ground
Until you climb down from that point of view

Repeat: Pre-Chorus and Chorus

Solo:
A C F D x 2

Pre-Chorus Solo:
-------------------|
-10-5-10-5-3-5-----|
-------------- x 8-|
-------------------|
-------------------|
-------------------|

Repeat Chorus x 2
End with Intro Riff 1 x 3
END  
Музыка - прекрасный способ стирания мыслей, плохих и не очень, самый лучший и самый давний (Мариам Петросян)
Мы стремимся к созданию контента, соответствующего всем нормам законодательства и уважающего интеллектуальную собственность. Мы также придаем большое значение тому, чтобы не задеть никого и не оскорбить чьи-либо чувства. Если у вас есть вопросы или претензии по размещенному материалу, пожалуйста, сообщите нам об этом.
Шрифт
-
0
+
Прокрутка
-
0
+
Стоп
Наверх