Аккорды «Better Than Ezra»

Better Than Ezra
Вместе со схожими по стилю "Goo Goo Dolls" нью-орлеанцы " Better Than Ezra " проложили дорогу множеству альт-поп команд конца 90-х типа "Semisonic", "Matchbox Twenty" и "Third Eye Blind". Проект организовали в 1988 г. четверо студентов Луизианского Государственного Университета – Кевин Гриффин (вокал, гитара), Джоэль Ранделл (гитара), Том Драммонд (бас) и Кэри Боннекэйз (ударные). В начале своей карьеры группа ориентировалась на корневой рок с элементами кантри и панка, а ее выступления проходили… Читать полностью... Вместе со схожими по стилю "Goo Goo Dolls" нью-орлеанцы " Better Than Ezra " проложили дорогу множеству альт-поп команд конца 90-х типа "Semisonic", "Matchbox Twenty" и "Third Eye Blind". Проект организовали в 1988 г. четверо студентов Луизианского Государственного Университета – Кевин Гриффин (вокал, гитара), Джоэль Ранделл (гитара), Том Драммонд (бас) и Кэри Боннекэйз (ударные). В начале своей карьеры группа ориентировалась на корневой рок с элементами кантри и панка, а ее выступления проходили в молодежных барах. В том же 1988-м парни записали первое демо, а двумя годами позже коллектив выпустил кассетный альбом "Surprise". Работа, за короткое время разлетевшаяся тиражом в 6000 копий, вызвала немало положительных откликов и в прессе замелькали сравнения с уже сделавшими себе имя "Replacements" и "Dinosaur Jr". К сожалению, смерть Ранделла, в августе 1990 г. окончившего жизнь самоубийством, чуть было не стала причиной распада команды. Прошло несколько месяцев, прежде чем оставшаяся троица возобновила работу, но чтобы избавиться от мрачных воспоминаний " Better Than Ezra " решили сменить обстановку и перебрались в Лос-Анжелес. Better Than Ezra В студии одного из своих тамошних друзей группа записала альбом "Deluxe", заставивший обратить на нее внимание крупных фирм. В 1995 г. коллектив заключил сделку с "Elektra Records", и работа была переиздана на национальном уровне. Благодаря крупному радиохиту "Good" уже к концу года альбом пересек платиновый рубеж и попал в первую сороковку "Billboard". Несмотря на рост популярности ряды " Better Than Ezra " покинул Кэри, и барабаны достались Трэвису МакНаббу. В 1996 г. вышел лонгплей "Friction, Baby", который хоть и сохранял стилистику предшественника, но из-за отсутствия ярких хуков сильно проигрывал в коммерческом плане. Умеренным спросом пользовались лишь композиции "Desperately Wanting" и "King of New Orleans", однако этого хватило только для 64-й строчки "Billboard". В 1998 г. музыканты вернулись в Новый Орлеан, где, организовав собственную студию "Fudge", записали диск "How Does Your Garden Grow?". Альбом носил экспериментальный характер, поскольку к традиционному для " Better Than Ezra " саунду были добавлены элементы трип-хопа, спэйс-рока и брит-попа. Критики встретили работу с восторгом, однако продажи пластинки оказались неутешительными, и "Elektra" поспешила расторгнуть контракт. Better Than Ezra Уйдя из мажорного логова, команда собственными силами выпустила сборник ауттэйков "Artifakt", после чего занялась подготовкой нового материала. На альбоме "Closer" группа впервые использовала скрэтчи, поэтому в качестве гостя на сессиях присутствовал ди-джей Свамп. Сопутствующий сингл "Extra Ordinary" успел просочиться в чарты, но на беду музыкантов выпускающий лейбл "Beyond" обанкротился, и дальнейшей раскрутки не последовало. Образовавшуюся длительную паузу прервал выход концертника "Live at the House of Blues, New Orleans", и лишь в 2004 г. " Better Than Ezra " познакомили своих поклонников с номерным альбомом "Before The Robots". Хип-хоп и электроника здесь были выброшены за борт, а большее внимание музыканты уделили вокальным гармониям и акустическим гитарам. Диск содержал ряд удачных номеров ("A Lifetime", "Juicy", "A Southern Thing") и по чартовым позициям обошел двух своих предшественников. В 2009 г. МакНабб перебрался в блюграсс-группу "Sugarland", а его место занял Майкл Джером. Дебют нового барабанщика состоялся на альбоме "Plays Paper Empire", представлявшем подборку софт-роковых номеров с изрядным количеством баллад. Скрыть...
Популярные аккорды Better Than Ezra:
алфавиту | просмотрам | случайно
  • Db                Bb
    Hey, you've got a lot of nerve
    Ab                           Gb
    To show your face 'round here
    Db                Bb
    Hey, you've got a lot of nerve
    Ab                        Gb
    To dredge up all my fears…
  • B
     v------------------------------ X2 --------------------------vv----- X4 ----
    G|________________|______________|______________|_____________||_____________
    D|________________|______________|______________|_____________||_____________
    A|________________|______________|______________|_____________||_____________
    E|____1111__1111__|__1111__1111__|__5555__5555__|__5555___533_||_0_11___111__…
  • Intro/Chorus: x2
         G        D        Em       C  
    |-----------------------------------------------------------------------|
    |-----------------------------------------------------------------------|
    |-----------------------------------------------------------------------|
    |----5--------12-------2--------10--------------------------------------|
    |----5--------12-------2--------10--------------------------------------|
    |----3--------10-------0---------8--------------------------------------|
    
    Bass…
  • Chords used
           A5      C#5   F5     D5
    E|-------------------------------|
    B|-------------------------------|
    G|----------6-------------7------|
    D|---7------6-----4-------7------|
    A|---7------4-----4-------5------|
    E|---5------------2--------------|
    
    
    (Verse)
    A5…
  • Intro riff (riff A):
    e----------3--------------|-----------3---------------
    B----3-----------3--------|-----3-----------3-----3---
    G-------------------------|--------------0------------
    D-------------0-----------|--------------------0------
    A-------2-----------2h3p2-|--3-----3------------------
    E-3-----------------------|---------------------------
    
    (play…
  • Tuning: Standard
    
    e|------------2-------2-2---------2--0---------------------------------------|
    B|---2--------2-------3-3---x-x-x-3--0---------------------------------------|
    G|---2----8x--2---8x--4-4---x-x-x-4--1---------------------------------------|
    D|---2--------4-------4-4---x-x-x-4--2---------------------------------------|
    A|---0--------4-------2-2---------2--2---------------------------------------|
    E|------------2-------2-2---------2--0---------------------------------------|…
  • Intro
    (sounds like an organ) but for guitar
    
    
    e|------------------------------------------------------------|
    B|------------------------------------------------------------|
    G|------------------------------------------------------------|
    D|---7--9-9---7^9--5-5---10-9---------------------------------|
    A|------------------------------------------------------------|
    E|------------------------------------------------------------|
    
    (the…
  • ** capo on 2nd **
      
    Rhythm Figure 1: (hint, barre the A)
    e---0-0-0-0-0-0-0-0---0-0-0-0-(0)--|---0-0-0-0-0-0-0-0---0-0-0-0-(0)-
    B---2-2-2-2-2-2-0-0---0-0-0-0-(0)--|---2-2-2-2-2-2-0-0---0-0-0-0-(0)-
    G---2-2-2-2-2-2-2-1---1-1-1-1-(1)--|---2-2-2-2-2-2-2-1---1-1-1-1-(1)-
    D---2-2-2-2-2-2-2-2---2-2-2-2-(2)--|---2-2-2-2-2-2-2-2---2-2-2-2-(2)-
    A---0-0-0-0-0-x-x-2---2-2-2-2-(2)--|---0-0-0-0-0-x-x-2---2-2-2-2-(2)-
    E-------------4-4-0---2-2-0-0-(0)--|-------------4-4-0---2-2-0-0-(0)-
    
    e--0-0-2-2-2-0-0----0--0----0-0-0-0-0-0-0---
    B--3-3-3-3-3-3-0----0--0----0-0-0-0-0-0-0---
    G--2-2-2-2-2-2-0h1--1--1----1-1-1-1-1-1-1---…
  • Verse (clean)
    
    F Am G
           Pass the road to your house
    F Am G 
           That you never called home
    F Am G
           Where they turned out your lights
    F Am G
       Though they say you'll never know
    
    Chorus
    
    F          Am
    I remember…
  • Intro:
    E-----2p0---0----3-+-----2p0---0----3-+-----2p0---0--
    B---3------3-3-----+---3------3-3-----+---3------3-3-
    G------------------+------------------+--------------
    D-0----------------+-0----------------+-0------------
    
    verse…
  • F      Am     G   (cadd9)
    e ---1-------0-----3------3----------------------------
    B ---1-------1-----0------3----------------------------
    G ---2-------2-----0------0----------------------------
    D ---3-------2-----0------x(0)-------------------------
    A…
Наверх