Аккорды «Bif Naked»

Bif Naked
Bif Naked (настоящее имя - Бэт Торбет) - канадская панк-рок певица и обладательница премии Juno. Рождённая в Индии, Торбет переехала в самом раннем возрасте в Штаты, а позже и в Канаду. Способности к написанию стихов и песен она начала проявлять в раннем возрасте и к 16 годам довольно чётко определилась с жизненной позицией - тогда на её теле появилась первая татуировка (сейчас оно ими заполнено больше, чем наполовину). Торбет придерживается строгой веганской диеты и вообще во многом симпатизирует… Читать полностью... Bif Naked (настоящее имя - Бэт Торбет) - канадская панк-рок певица и обладательница премии Juno. Рождённая в Индии, Торбет переехала в самом раннем возрасте в Штаты, а позже и в Канаду. Способности к написанию стихов и песен она начала проявлять в раннем возрасте и к 16 годам довольно чётко определилась с жизненной позицией - тогда на её теле появилась первая татуировка (сейчас оно ими заполнено больше, чем наполовину). Торбет придерживается строгой веганской диеты и вообще во многом симпатизирует стрейтэйджерской идеологии. Прежде, чем начать сольную музыкальную карьеру, певица состояла в группах Gorilla Gorilla и Chrome Dog. Кроме того, есть у неё успехи и на кинематографическом поприще - в основном это фильмы ужасов, в соответствии с её образом. Скрыть...
Популярные аккорды Bif Naked:
алфавиту | просмотрам | случайно
  • C5      B5      A5      G5       F5      E5       F5      G5
    |-----------------------------------------------------------------|
    |-----------------------------------------------------------------|
    |-5-5-5-5-4-4-4-4-------------------------------------------------|
    |-5-5-5-5-4-4-4-4-7-7-7-7-5-5-5-5-3-3-3-3-2-2-2-2-3-3-3-3-5-5-5-5-|
    |-3-3-3-3-2-2-2-2-7-7-7-7-5-5-5-5-3-3-3-3-2-2-2-2-3-3-3-3-5-5-5-5-|
    |-----------------5-5-5-5-3-3-3-3-1-1-1-1-0-0-0-0-1-1-1-1-3-3-3-3-|
    
    Verse…
  • * =p
    
    Intro (10x)  up & down stroke on the 2*!
    G----------------------------------|
    D----------------------------------|
    A-----------------------------5----|
    E-2-2-0-2-0-2*-5---2-2-0-2-0-2*----|
    
    Verse 1
    (2x)…
  • [verse]
    	A5	B5	D5	A5
    E|--------------------------------------------------------|
    B|--------------------------------------------------------|
    G|----------------------------------7---------------------|
    D|----------7----------9-----------7-----------7----------|
    A|----------7----------9-----------5-----------7----------|
    E|-----------5----------7-----------------------5---------|
    
    [chorus]
    	E5		D5		E5
    E|----------------------------------------------------------------------------|
    B|----------------------------------------------------------------------------|
    G|----------9------------------------7-----------------------9----------------|
    D|----------9------------------------7-----------------------9----------------|
    A|----------7------------------------5-----------------------7----------------|
    E|----------------------------------------------------------------------------|
    
    [fill…
  • F#m	G#m	F#m	F#m
    It was a Monday when my lover told me
    Never fear the reaper with love only
    What could I say to you except I love you?
    I?d give my life for yours
    
    E	E	C#	B
    I know we are we are the lucky ones
    I know we are…
  • NOTE: Guitar 1 is all acoustic and Guitar 2 is electric
    
    Intro (Gtr. 1)
    D|-13-13-13-XX-8--8-8-8-3-3-3-/8-|
    A|-13-13-13-XX-8--8-8-8-3-3-3-/8-|
    E|-11-11-11-XX-6--6-6-6-1-1-1-/6-|
    
    Verse (Gtr. 1)
    G|-8-8-8-XXX-----------------|
    D|-8-8-8-XXX-8-8-8-3-3-3-/8--|
    A|-6-6-6-XXX-8-8-8-3-3-3-/8--|
    E|-----------6-6-6-1-1-1-/6--|
    
    Pre-Chorus…
  • * = Strum 8x
    ^ = use wahmmy bar
    
    Intro
    G|11-11-11-11-10-10-10-10-8-8-8-8-6-6-6-6-|
    D|11-11-11-11-10-10-10-10-8-8-8-8-6-6-6-6-|
    A|-9--9--9--9--8--8--8--8-6-6-6-6-4-4-4-4-|
    
    Verse (“We’re not gonna take it……”)
    G|----6*----4*----6*----6-6-6-6-6-6-6-|
    D|-4*-6*-4*-4*-4*-6*-4*-6-6-6-6-6-6-6-|
    A|-4*-4*-4*-2*-4*-4*-4*-4-4-4-4-4-4-4-|
    E|-2*----2*----2*----2*---------------|…
  • Intro/Verse:     x6
    G:------------------------------------------------------------
    D:--------------------------------------------7-7-7-5---------
    A:--7---7-5--5-----------5-------7---7-5----------------------
    E:----------------7-7-7-------------------7-------------------
    
    Chorus:…
  • NOTE: * = strum 8x
    
    Intro (clean)
    B|-8--8-8-8-8--------------------------------------
    G|-9--9-9-9-9-X--5--5-5-5-X------------7--7-7-7-X--
    D|-9--9-9-9-9-X--5--5-5-5-X-5--5-5-5-X-7--7-7-7-X--
    A|-7--7-7-7-7-X--3--3-3-3-X-5--5-5-5-X-5--5-5-5-X--
    E|--------------------------3--3-3-3-X-------------
    
    Intro…
  • NOTE: * = strum 8x
    
    Verse (“I was just out of……..”)
    G|-764--2-R-|
    D|-764--2-R-|
    A|-542--0-R-|
    
    Fill 1 (“Our love was….”)
    G|-XX-X-|
    D|-XX-X-|
    A|-XX-X-|
    
    Verse P2 (“Our love was grand…”)
    G|-764--2--------|
    D|-764--2--------|
    A|-542--0--------|…
  • * = light pop
    /  = slide
    
    Intro:
    G|------------|
    D|------------|
    A|----5-3-2-0-|
    E|-3----------|
    
    Verse:
    G|----------------------|
    D|----------------------|
    A|--------------5-3/2-0-|
    E|-88-888-888-8---------|
    
    G|----------------------|
    D|----------------------|
    A|--------------5-3/2-0-|
    E|-33-333-333-3---------|
    
    Pre-Chorus
    G|-------------------------------------------------------------|
    D|-------------------------------------------------------------|
    A|-7-7-7-7-7-7----9-9-9-9-9-9---7-7-7-7-7-7----9-9-9-9-9-9-9-9-|
    E|-------------7-9-----------9-7-----------…
  • e|---------------------------------|
    B|---------------------------------|
    G|-77xxxx--------------------------|
    D|-77xxxx-77xxxx-99999999-55555555-|
    A|-55xxxx-77xxxx-99999999-55555555-|
    E|--------55xxxx-77777777-33333333-|
    
    e|-----------------------------|
    B|-----------------------------|
    G|-77755544222444454442202220--|
    D|-----------------------------|
    A|-----------------------------|
    E|-----------------------------|…
  • Intro
    E|-3-|-2-|-0-|
    B|-3-|-3-|-1-|
    G|-0-|-2-|-0-|
    D|-0-|-0-|-2-|
    A|-2-|-X-|-3-|
    E|-3-|-X-|-X-|
       G   D   C
    
    Pre-Chorus
    E|--0--|--0--|--0--|
    B|--1--|--1--|--1--|
    G|--2--|--2--|--0--|
    D|--2--|--2--|--2--|
    A|--0--|--0--|--3--|…
  • NOTE: * = strum 8x
    
    Verse (“If I fall out of……”)
    E|--------7-------3-------5-------0--
    B|--------7-------3-------5-------0--
    G|-8------8-------4-------6-------1--
    D|-9-9-9--9--5-5--5--7-7--7--2-2--2--
    A|-9-9-9--9--5-5--5--7-7--7--2-2--2--
    E|-7-7-7--7--3-3--3--5-5--5--0-0--0--
    
    Verse…
Наверх