Аккорды Big Daddy Weave - Audience Of One

Добавлено: @romashka
Дата добавления: 04 Января 2024г.
Рейтинг:
0.0
Просмотров: 43
Pre Chorus

G|---------------------------------------------|
D|---------------------------------------------|
A|0>----2>-------------------------------------|
E|----------------------3>---------------------|

     and I lift these songs to You and You alone

G|--------------------------------------------------|
D|--------------------------------------------------|
A|0>----2>----------3>------------------------------|
E|--------------------------------------------------|

     As I sing to You, in my praises make Your home

G|--------------------------------------------------|
D|-----------------0---------------------0----------|
A|-------------------0-----------------------0------|
E|-------3-------------------------3----------------|

Chorus
   To my audience of One, You are Father and You are Son

G|---------------------------------------------|
D|---------------------------------------------|
A|----------2----------------------------------|
E|------------------3--------------------------|

       As Your Spirit flows free, let it find within me


G|------------------------------------------------|
D|-----0------------------------------------------|
A|-------------------------0----------------------|
E|----------------3-------------------------------|

    A heart that beats to praise You

G|--------------------------------------------------------|
D|-----------------0--------------------------0-----------|
A|-------------------------0-------------------------0----|
E|--------3---------------------------3-------------------|

  And now just to know You more has become my great reward

G|---------------------------------------------|
D|---------------------------------------------|
A|-------2----------------------2--------------|
E|---------------------3--------------------3--|
     To see Your kingdom come and Your will be done


G|---------------------------------------------|
D|---0-----------------------------------------|
A|---------------------0-----------------------|
E|--------3------------------------------------|
       I only desire to be Yours, Lord		
Но если и музыка нас оставит, что будет тогда с нашим миром? (Гоголь)
Мы стремимся к созданию контента, соответствующего всем нормам законодательства и уважающего интеллектуальную собственность. Мы также придаем большое значение тому, чтобы не задеть никого и не оскорбить чьи-либо чувства. Если у вас есть вопросы или претензии по размещенному материалу, пожалуйста, сообщите нам об этом на указанный адрес электронной почты: [email protected].
Шрифт
-
0
+
Прокрутка
-
0
+
Стоп
Наверх