Аккорды «Blues Traveler»

Blues Traveler
Blues Traveler - блюз бэнд из Принстона, Нью Джерси (Основанны в 1987). Группа играет во множестве жанров, включая blues-rock, psychedelic rock, folk rock, soul и Southern rock. Blues Traveler - блюз бэнд из Принстона, Нью Джерси (Основанны в 1987). Группа играет во множестве жанров, включая blues-rock, psychedelic rock, folk rock, soul и Southern rock. Скрыть...
Популярные аккорды Blues Traveler:
алфавиту | просмотрам | случайно
  • D:		xx0232
    Dsus4 (Ds):	xx0233
    
    Each |  | represents a measure
    
    |C | G | D | D Ds D Ds D |
    |C | G | F | F           |
    
    C          G                   D      D Ds D Ds D
    If you are feeling like you're tired
    C…
  • Intro:  | G /  /  / | D / C(9) / :||
    
    VERSE 1:
    G                          D              C(9)
    Never a day goes by when I can't see his face
    G                                      D               C(9)
    And I can hear a thundering…
  • G: 320033
    Csus4: 032033
    Dsus4: 000233
           D: 000232
    Cadd9: 032030
    
    G   Csus4  Dsus4
    
    
    G                Csus4 Dsus4
    I pick up my smile  and put it in my pocket
    G               Csus4 Dsus4
    Hold it for a while   try not…
  • G   D            	    Em     E
    YOU,  WITH YOUR HAND OUTSTRETCHED
    G       D      Em   E
    FINGER ON THE KEY
    G		D 		Em    E
    THIS LOCK THAT YOU RELEASE
    G	       D		Em
    IS OPENING BUT ISN'T FREE
    E7   			   Am
    AND I HOPE THAT YOU…
  • Chords used:
    G, Am, D, Em, C
    
    
      Intro  
    |-3-3----------3-------3-------3-------3--|
    |-3----3---------3-------3-------3-----3--|
    |-0-------0--------0-------0-------0---0--|
    |-0----------0-------0-------0-------0-0--|
    |-2------------------------------------2--|
    |-3------------------------------------3--|…
  • G:  320033
    D:  XX0232
    C:  X32010
    F:  X33211
    
    
    G       D   C   F
    
    G         D         C      F      G
    If Cyrano de Bergerac
    G                D                 C     F     G
    Fell prey to the blades of fifty men
    G…
  • A          D        A           D       E       A
    When she wakes it seems so shady, she remembers she's a lady
          F#m               E              A      D      E
    Oh but could it be that maybe she was having lots of fun…
  • C	Am	F	F	Fmaj7	F#/D	G
    0	0	1	1	0	2	3
    1	1	1	1	1	3	0
    0	2	2  or	2	2	2	0
    2	2	3	3	3	0	0
    3	0	x	3	x	x	2
    x	x	x	1	x	2	3
    
    Sometimes when Playing the Am, he plays it like this
    
    Am  A2   Am    Asus Am  A2   Am
    0----0----0----0----0----0----0
    1----0----1----3----1----0----1
    2----2----2----2----2----2----2
    2----2----2----2----2----2----2
    0----0----0----0----0----0----0
    x----x----x----x----x----x----x
    
    
    Intro
    C…
  • INTRO
    
    ---7-----7-9-7---7---7---7---7-7-5---5---5-5---5-7---7---7---7-7-7-
    ---7-----7-7-7---9---9---7---7-7-5---5---5-5---5-7---7---7---7-7-7-
    ---8-----8-8-8---8---8---8---8-8-6---6---6-6---6-8---8---8---8-8-8-
    ---9-----9-9-9---9---9---9---9-9-7---7---7-7---7-9---9---9---9-9-9-
    -------------------------------------------------------------------
    -------------------------------------------------------------------
    
    
    
    VERSE
    
    
    ---7--7--7--7-----7--7--7-----5--5---5--5--5-----7--7--7--7------
    ---7--7--7--7-----9--9--9-----5--5---7--7--7-----7--7--7--7------
    ---8--8--8--8-----9--9--9-----6--6---7--7--7-----8--8--8--8------
    ---9--9--9--9-----9--9--9-----7--7---7--7--7-----9--9--9--9------
    ---9--9--9--9-----7--7--7-----7--7---5--5--5-----9--9--9--9------
    ---7--7--7--7-----------------5--5---------------7--7--7--7------
    
    
    
    CHORUS
    
    
    ---5--5--5--5-----7--7--7--7------5--5--5--5-----7--7--7--7------
    ---5--5--5--5-----7--7--7--7------5--5--5--5-----7--7--7--7------
    ---6--6--6--6-----8--8--8--8------6--6--6--6-----8--8--8--8------
    ---7--7--7--7-----9--9--9--9------7--7--7--7-----9--9--9--9------
    ---7--7--7--7-----9--9--9--9------7--7--7--7-----9--9--9--9------
    ---5--5--5--5-----7--7--7--7------5--5--5--5-----7--7--7--7------
    
    
    Solo
    
    ------------------------------------------------10--9--7---------
    -----------------------------------------------------------------
    ---9--7-----9--7-----9--7-----9--7-----9--7----------------------
    ---------9--------9--------9--------9--------9-------------------
    -----------------------------------------------------------------
    -----------------------------------------------------------------
    
    -----------------------------------------------------------------
    -----------------------------------------------------------------
    ---8b9r8b9r8-----------------------------------------------------
    --------------9--7-----------------------7--------7--------7-----
    --------------------9--7--9--7--9--7--9-----7--9-----7--9--------
    -----------------------------------------------------------------
    
    -----------------------------------------------------------------
    -----------------------------------------------------------------
    -----------------------------------------------------------------
    ---------7--------7--------7-----7h9p7h9p7h9p7h9p7h9p------------
    ---7--9-----7--9-----7--9-----7----------------------------------
    -----------------------------------------------------------------
    
    -----------------------------------------------7h9p7h9p7h9p7h9---
    -------------------------7h9p7h9p7h9p7h9p7h9p--------------------
    ---7h9p7h9p7h9p7h9p7h9p------------------------------------------
    -----------------------------------------------------------------
    -----------------------------------------------------------------
    -----------------------------------------------------------------
    
    ---p7h9p7h9p7h9p7h9p7h9p7h9p7h9p7h9p7h9p7h9p7h9p7h9p7h9---------
    -----------------------------------------------------------------
    -----------------------------------------------------------------
    -----------------------------------------------------------------
    -----------------------------------------------------------------
    -----------------------------------------------------------------
    
    Lyrics:
    
    I…
  • Chords:
    
       A5 B5 E5 Em G#5 C#5
    E  X  X  X  0  X   X
    B  X  X  X  0  X   X
    G  X  X  X  0  X   X
    D  7  9  14 2  6   11
    A  7  9  14 2  6   11
    E  5  7  12 0  4   9
    
    
    Intro:  A5 B5 E5 (3 times) then A5 B5 Em (once)
    
    
    Verse 1:…
Наверх