Аккорды Bon Jovi - This House Is Not For Sale

Добавлено: @romashka
Дата добавления: 10 Июля 2019г.
Рейтинг:
0.0
Просмотров: 4
Транспонировать - +
Intro: Em G C G

Verse:
Em                                     Am
These four walls have got a story to tell
Em                        C
Oooooh-Ooooh, Oooooh-Oooooh
Em                                                    Am
 The door is off the hinges, there's no wish in the well
Em                        C
Oooooh-Ooooh, Oooooh-Oooooh

C                              Cmaj7/B
Outside the sky is coal black and the streets are on fire
Am                            C
The picture windows cracked and there's no where to run
C               C
I know, I know, this house is not for sale

Chorus:
Em       G          C                G 
I set each stone and I hammered each nail
Em   G        C       G      
This house is not for sale
    Em           G          C      G            
Where memories live and the dream don't fail
Em   G        C       G      
This house is not for sale
Em     G    C    G      D
Coming home, I'm coming home

Verse:
Em                                               Am
Drove a spike into the ground and I staked my claim
Em                        C
Oooooh-Ooooh, Oooooh-Oooooh
Em                                           Am
Standing on the dirt where they'll dig my grave
Em                        C
Oooooh-Ooooh, Oooooh-Oooooh

C                             Cmaj7/B
Now what built these walls is in my veins
Am                        C
No time for looking back, the wolf is at the door
C
This heart, this soul, this house is not for sale

Chorus:
Em       G          C                G
I set each stone and I hammered each nail
Em   G        C       G
This house is not for sale
    Em           G          C      G
Where memories live and the dream don't fail
Em   G        C       G
This house is not for sale
Em     G    C    G      D
Coming home, I'm coming home

Bridge:
C          Em
This house was built on trust
Am                 C
That's what it is, it always was
C                Em
No wrecking ball could knock it down
C
This house was built on higher ground

Solo:
e|---------------------------0---0--------|-----3----5b7--3p2--3-------------------|
B|-----------------------------0----------|-/3----3---------------5--3--5--5b7br5~-|
G|-------------0~--x--x--2b4-------2b4br2-|----------------------------------------|
D|----2~--x--x----------------------------|----------------------------------------|
A|-10-------------------------------------|----------------------------------------|
E|----------------------------------------|----------------------------------------|

e|---------------------------------------|
B|-12------------------------12--13--15~-|
G|-12--------12--------12h14-------------|
D|----14--12----14--12-------------------|
A|---------------------------------------|
E|---------------------------------------|

e|-12-14-15-14-12----12----------12--------------------------------------------------------|
B|----------------15----15-12-15----15-12----12----------12--------------------------------|
G|----------------------------------------14----14-12-14----14-12--------------------------|
D|----------------------------------------------------------------14-12--------------------|
A|----------------------------------------------------------------------14-12-10-----------|
E|-------------------------------------------------------------------------------12-10-12~-|

Chorus:
Em       G          C                G
I set each stone and I hammered each nail
Em   G        C       G
This house is not for sale
    Em           G          C      G
Where memories live and the dream don't fail
Em   G        C       G
This house is not for sale
Em     G    C    G      D
Coming home, I'm coming home

Em     G    C    G      D
Coming home, I'm coming home
Em     G    C    G      D 
This house is not for sale
Em     G    C    G      D 
Coming home, I'm coming home
Em     G    C    G      D 
I'm coming home, I'm coming home
     Em  G    C       Em
This house is not for sale

The original recording is half-step down with Capo on 2nd fret, 
but of course it's the same if you play with standard 
tuning with Capo on 1st fret.
comments powered by Disqus
Наверх