Аккорды Bon Jovi - Walls

Добавлено: @romashka
Дата добавления: 25 Мая 2024г.
Рейтинг:
0.0
Просмотров: 23
[Verse 1]
Am
My mama told me
C
When I was younger
F
You better speak up
F
Don't be a number
Am
My daddy told me
               C
When there was thunder
F
Go be the lightning
F
Don't run for cover

[Pre-Chorus]
Am          G
Who's gonna help the helpless
Em             F
Sometimes we're all alone
Am               G
These days we're all just looking
Em
For a place that we call home

[Chorus]
       F
Now we can't climb over
         Am
And you can't go 'round
  G
Build them up
       Am
We'll tear them down
  F
Brick by brick
       Am
Gonna watch them fall
  G
Build more bridges
     Am
And tear down walls

       F
These walls
         C
Are the mountains that we climb
       G
These walls
         Am      G
Are the great divide
 F
Brick by brick
       C
Gonna watch them fall
 G
Build more bridges
  Am
Tear down walls

[Verse 2]
             Am
The space between us
            C
Is getting wider
             F
We need this bar to
           F
Light the fire
             Am
Show me the promise
             C
Give me some dealing
                 F
There's too much hurting
                F
We need some healing

[Pre-Chorus]
Am           G
Who's gonna help the helpless
Em             F
Sometimes we're all alone
Am               G
These days we're one step closer
Em               F
To that place that we call home

[Chorus]
       F
Now we can't climb over
         Am
And you can't go 'round
  G
Build them up
       Am
We'll tear them down
  F
Brick by brick
       Am
Gonna watch them fall
  G
Build more bridges
     Am
And tear down walls

       F
These walls
         C
Are the mountains that we climb
       G
These walls
         Am      G
Are the great divide
 F
Brick by brick
       C
Gonna watch them fall
 G
Build more bridges
  Am
Tear down walls

[Solo]
e|-----------|----------|---------------------|-------------------------|
B|--13\------|--13\-----|--12b13r12b13--12~---|--10--12--13--12--10-----|
G|------10~--|------9~--|---------------------|---------------------12--|
D|-----------|----------|---------------------|-------------------------|
A|-----------|----------|---------------------|-------------------------|
E|-----------|----------|---------------------|-------------------------|

e|-----------|----------|-----------------------|--10--12--13--12--10-----|
B|--13\------|--13\-----|--12b13r12b13--13b15---|---------------------13--|
G|------10~--|------9~--|-----------------------|-------------------------|
D|-----------|----------|-----------------------|-------------------------|
A|-----------|----------|-----------------------|-------------------------|
E|-----------|----------|-----------------------|-------------------------|

[Bridge]
 N.C
I remember when the world was smaller

And we both felt 10 feet taller

[Chorus]

       F
Now we can't climb over
         Am
And you can't go 'round
  G
Build them up
       Am
We'll tear them down
  F
Brick by brick
       Am
Gonna watch them fall
  G
Build more bridges
     Am
And tear down walls

       F
These walls
         C
Are the mountains that we climb
       G
These walls
         Am      G
Are the great divide
 F
Brick by brick
       C
Gonna watch them fall
 G
Build more bridges
  Am
Tear down these walls
       F
These walls
       G
These walls
       F
These walls
  Am
Tear down walls
       F
These walls
       G
These walls
       F
These walls
  Am
Tear down walls
Без музыки жизнь была бы заблуждением (Ницше)
Мы стремимся к созданию контента, соответствующего всем нормам законодательства и уважающего интеллектуальную собственность. Мы также придаем большое значение тому, чтобы не задеть никого и не оскорбить чьи-либо чувства. Если у вас есть вопросы или претензии по размещенному материалу, пожалуйста, сообщите нам об этом на указанный адрес электронной почты: [email protected].
Шрифт
-
0
+
Прокрутка
-
0
+
Стоп
Наверх