Аккорды «Бони НЕМ»

Бони НЕМ
Кирилл Немоляев, телеведущий Ленинградского телевидения, обьединился с музыкантами группы «Тризна» в 1993 году для исполнения пародий на песни как металлических коллективов, так и поп-групп, смешивая абсурдные тексты из поп-клише с экстремально тяжелой музыкой. Первоначальным названием группы было «Ковер», затем «Карданный Вал». Сам Немоляев первоначально выступал под псевдонимом Свищ. Приняв участие в передаче Ивана Демидова «Муз-обоз» на ТВ-6, группа приобрела первоначальную известность. Клип… Читать полностью... Кирилл Немоляев, телеведущий Ленинградского телевидения, обьединился с музыкантами группы «Тризна» в 1993 году для исполнения пародий на песни как металлических коллективов, так и поп-групп, смешивая абсурдные тексты из поп-клише с экстремально тяжелой музыкой. Первоначальным названием группы было «Ковер», затем «Карданный Вал». Сам Немоляев первоначально выступал под псевдонимом Свищ. Приняв участие в передаче Ивана Демидова «Муз-обоз» на ТВ-6, группа приобрела первоначальную известность. Клип на песню «Афиша» транслировался по телеканалам 2x2 и Biz TV. Группа выступила на разогреве московского концерта Cannibal Corpse. В 1994 Немоляев формально распустил Карданный Вал, но после некоторых изменений состава группа вскоре возродилась под названием «Бони НЕМ». Тогда же вышел дебютный альбом «Мелодии и ритмы зарубежной эстрады» (1995), по одноименной советской телепередаче), состоявший из брутальных пародий на известные диско-хиты. Альбом был выпущен лейблом PolyGram, принадлежащим руководителю Biz TV Борису Зосимову. Продюсер поначалу не верил в успех проекта, однако продажи оказались удовлетворительными. Вскоре после выхода альбома Немоляев полностью обновил состав, набрав молодых музыкантов. С ними был записан «Мелодии и ритмы зарубежной эстрады — 2», продюсером которого выступил основатель «Арии» Владимир Холстинин. Альбом был менее успешен, а музыканты уже устали от пародий, поэтому в 1997 группа фактически распалась повторно. Немоляев присоединился к петербургской рок-группе «Кома» и играл в ней до 2002 года. В это время Бони НЕМ выпускает только сборники «лучших хитов» со старых альбомов. В 2002 деятельность Бони НЕМ возобновилась, начались концерты. В новый состав проекта вошли несколько участников альтернативной группы Слот. Выпускаются альбомы «День Победы», «Исподнее», «Крайняя плоть». Сольные альбомы Немоляева: 2000 - Для вас, женщины! Ремиксы зарубежных эстрадных песен -- на оригинальные фонограммы наложен гроулинг Кирилла. Получаются некие дуэты. 2001 - Комические куплеты Хиты классиков металлической сцены, исполненные под акустическую гитару и скрипочку. 2004 - Для вас, мужчины! "Поёт Клара Немоляева" -- популярные песни 90х, записанные томным женским голосом Кирилла в сопровождении оркестра. Состав: Кирилл Немоляев (вокал) Александр Гудвин (гитара, вокал) Анатолий Натаровский (ударные) Николай Голубев (соло-гитара) Аркадий Лебедев (бас-гитара) Татьяна Яценко (бэк вокал) Ольга Дзусова (вокал) Скрыть...
Популярные аккорды Бони НЕМ:
алфавиту | просмотрам | случайно
  • F#5
    Яблоки на снегу
    Розовое на белом
    E5                 А5
    Что же нам с ними делать
    В5                С#5 C#5 C#5
    С яблоками на снегу
    
    Припев:B5
           Яблоки на снегу
           F#5
           Яблоки на снегу
           В5…
  • Tuning D
    
    Intro
    
    Gtr 1
    E|---------------------------------------------------------|
    B|---------------------------------------------------------|
    G|---------------------------------------------------------|
    D|---------------------------------------------------------|
    A|----7-7--5-(5)---5-5--3-(3)----7-7--5-(5)-----5-5--3-(3)-|
    E|----5-5--3-(3)---3-3—-1—(1)----5-5--3-(3)-----3-3—-1—(1)-|
    |…
  • Tuning D
    
    Intro
    Riff A1
    Gtr 1 (clean electric)                        x10
    E|-------------0----------1--x-3-3--x------------|
    B|*-----1--------1--------1--x-3-3--x----------*-|
    G|--------2--------2------2--x-4-4--x------------|
    D|----------2--------2----3--x-5-5--x------------|
    A|*--0--------------------3--x-5-5--x----------*-|
    E|------------------------1--x-------------------|
    
    Gtr…
  • Tuning D
    
    Intro
    Gtr 1 and Gtr 2 (clean electric)                      x4
    E|----0--0--x---0--0--0--x---2--2--x---4--4--4--x-----|
    B|*---1--1--x---1--1--1--x---3--3--x---5--5--5--x----*|
    G|----2--2--x---0--0--0--x---2--2--x---4--4--4--x-----|
    D|----2--2--x---2--2--2--x---0--0--x------------x-----|
    A|*---0--0--x---3--3--3--x---------------------------*|
    E|----------------------------------------------------|
    -…
  • Intro
    Gtr 1 and Gtr 2
    
    ­­­___ a way ____ Words ...
    
    E|--------------------------------------|
    B|--------------------------------------|
    G|--------------------------------------|
    D|----------------------------------5---|
    A|-----5-5-5-5-5-5-5-5-5-5-5-5-5----3---|
    E|--------------------------------------|
    
    E|--------------------------------------------|
    B|--------------------------------------------|
    G|--------------------------------------------|
    D|--5--5----------------------------5----5--5-|
    A|--3--7-5-5-5-5-5-5-5-5-5-5-5-5----3----3--7-|
    E|--------------------------------------------|
    p.m.…
  • intro
    
      clean gtr
    G|-----7-7-7-7-----7-7-7-7-----------------7-7-7-7-|
     |     * * * *     * * * *                 * * * *  pm
     |bass
    A|-3-----------3-1---1-0---1-|
    E|-3-------------------------|
    
      clean gtr
    G|-----7-7-7-7-----7-7-7-7--------------|…
  • Intro
    
    Riff 1
    
    Gtr1 and Gtr2
    
    E||--------------------------|
    B||----*-*-*---*-*-*---*-*-*-|
    G||----7-6-5---7-6-5---7-6-5-|
    D||----5-4-3---5-4-3---5-4-3-|
    A||--------------------------|
    E||--------------------------|
    (* -…
  • Tuning E
    
    Intro
    Riff A
    Gtr 1
    
    E||--0-----0------0-----0-------0-0-------1-----1------1-----1-------1--0-|
    B||--1-----1------1-----1-------1-1-------1-----1------1-----1-------1--1-|
    G||--2-2-2-2-2-2--2-2-2-2-2-2---2-2-2-2---2-2-2-2-2-2--2-2-2-2-2-2---2--2-|
    D||--2-----2------2-----2-------2-2-------2-----2------2-----2-------2--2-|
    A||-----------------------------------------------------------------------|
    E||-----------------------------------------------------------------------|
    
    Gtr…
  • Tuning D
    
    Intro
    
    Gtr 1
    E|------------------------------------------------------|
    B|------------------------------------------------------|
    G|------------------------------------------------------|
    D|------------------------4—(4)-------------------4—(4)-|
    A|-----/-⁄--3-(3)---------2-(2)---------3—(3)-----2-(2)-|
    E|-----/-⁄--1-(1)-----------------------1-(1)-----------|
    |…
  • гитару строим в ре (D A F C G D)
    
    intro and main riff:
    
    D|------------------------------------|
    A|------------------------------------|
    F|-7-7--------------7-7---------------|
    C|-7-7-----5-88-7---7-7-------5-------|
    G|-5-5---8----------5-5---8-7---8-7-5-|
    D|------------------------------------|
    
    Куплет…
  • Tuning Eb
    
    Intro (clean electric)
    Gtr 1 and Gtr 2 x6 x2 x2
    E||----------------0-------------|----------1-0-1------|-----------------------|
    B||*--------1--------1----------*|*-------3-------3---*|*--------------------*-|
    G||-----------2--------2---------|------2-----------2--|-----0------0----------|
    D||-------------2--------2-------|----0----------------|-------0------0---0----|
    A||*-----0----------------------*|*-------------------*|*--------2------2----*-|
    E||------------------------------|---------------------|--3--------------------|
    
    Gtr…
  • Tuning E
    
    Riff A
    Intro (acoustic)
    Gtr 1 x4
    E|---10-------14------------10-------14------------|
    B|*-----11-------15----15------11-------15----15---|
    G|---------9--------14------------9--------14------|
    D|-------------------------------------------------|
    A|*------------------------------------------------|
    E|-------------------------------------------------|
    
    E|-9-------12-----------9-------12------------|
    B|---10-------13----13----10-------13----13-*-|
    G|------7--------12----------7--------12------|
    D|--------------------------------------------|
    A|------------------------------------------*-|
    E|--------------------------------------------|
    
    Gtr…
  • Tuning D
    
    Intro
    Gtr 1
    E|-----------------------------------------------------------------------------|
    B|-----------------------------------------------------------------------------|
    G|-----------------------------------------------------------------------------|
    D|---5-(5)----------------5-(5)------------------5-(5)---------------5⁄--2-(2)-|
    A|---3—(3)--3-(3)—-5-(5)--3-(3)----3-(3)--5-(5)--3-(3)---------------3⁄--0-(0)-|
    E|----------1-(1)--3-(3)-----------1-(1)--3—(3)--------------------------------|
    |…
Наверх