Аккорды «Boston»

Boston
Взлет этой команды был неожиданно молниеносным. Полупрофессиональный коллектив под руководством Тома Шольца (р. 10 марта 1947, Толедо, США) записал несколько демок и представил их на суд записывающей компании "Epic Records". Нежданно-негаданно ленточки впечатлили "Epic Records", и Шольц объединился с друзьями Франом Шиханом (р. 26 марта 1949, Бостон, США; бас), Брэдом Делпом (р. 12 июня 1951, Бостон, США; гитара, вокал), Барри Гудро (р. 29 ноября 1951, Бостон, США; гитара) и Сибом Хашианом (р. 17… Читать полностью... Взлет этой команды был неожиданно молниеносным. Полупрофессиональный коллектив под руководством Тома Шольца (р. 10 марта 1947, Толедо, США) записал несколько демок и представил их на суд записывающей компании "Epic Records". Нежданно-негаданно ленточки впечатлили "Epic Records", и Шольц объединился с друзьями Франом Шиханом (р. 26 марта 1949, Бостон, США; бас), Брэдом Делпом (р. 12 июня 1951, Бостон, США; гитара, вокал), Барри Гудро (р. 29 ноября 1951, Бостон, США; гитара) и Сибом Хашианом (р. 17 августа 1949, Бостон, США; ударные) для создания группы. Недолго думая, они обозвали свою команду "Boston", и их первый одноименный релиз достиг 3 места в чартах США, которого в конечном счете было продано 16 миллионов копий только в Штатах, и который не вылазил из штатовских чартов два года. Незабываемая композиция "More Than A Feeling" мгновенно оказалась международным хитом. Мелодичный хард-рок завоевал сердца слушателей, и казалось, что группе обеспечено безоблачное будущее. Двумя годами позже они почти повторили свой успех с альбомом "Don't Look Back", который также возглавил чарты США, а одноименная заглавная композиция пользовалась бешеным успехом у огромной аудитории. Немного позже Шольц оказался вовлеченным в судебную баталию против "CBS Records" и их менеджера Пола Ахерна по задержкам выполнения его контракта. В это же время неусидчивый Шольц (в прошлом дизайнер изделий для "Polaroid"), изобрел мини-усилитель, прозванный "Rockman". Гудро притомился длинным творческим отпуском группы и выпустил сольник, а потом и вообще свалил от коллег подальше, чтобы организовать "Orion The Hunter" с Фрэном Космо. Хашиан и Шихан также последовали его примеру в середине 80-х, которым Шольц дал на время попользоваться именем "Boston" (он будет позже преследоваться всеми тремя членами экс-банды). Группа в облике Шольца и Делпа вернулась на сцену в 1986 году с альбомом "Third Stage", который сопровождался двумя хитовыми синглами - "Amanda" (который достиг №1 в чартах) и "We're Ready". Фаны давно уже жаждали обновить свою поистрепанную за 8 лет коллекцию, и, хотя третий альбом не нес в себе ничего нового, им не оставалось никакого выбора, как приобретать его. Такая ситуация позволила "Бостону" стать первой в рок-истории США группой, чей дебютный альбом продавался лучше всех, и суммарные продажи всех альбомов перевалили за 50 миллионов копий. Шольц отправился в тур, посвященный "Третьей стадии", с новым составом банды, включающим Делпа, гитариста Гэри Фила, басиста Дэвида Сайкса и ударников Дуга Хаффмана и Джима Масдеа. В 1990 году Шольц наконец-то выиграл свою судебную тяжбу против CBS. Прежде чем Шольц начал работу над новым альбомом, завербовав партнера Годри Космо как вокалиста, от него ушел Делп, который присоединился к проекту Годри "Return To Zero". Короче, оказалось так, что на "Walk On" Шольц остался единственным из первоначального состава. Фаны немного подразочаровались, но тем не менее диск попал в Топ 5 в США. Тем временем Шольц проиграл свой затяжной судебный процесс против Ахерна и был присужден к выплате более полумиллиона баксов. Пришлось ему прикрыть свою компанию "Research & Development" и уйти из "MCA Records". Вот такая грустная история могла бы получиться, однако летом 2002 года "Boston" в несколько обновленном составе вернулись с новым альбомом "Corporate America". Дискография: Boston - 1976 Don't Look Back - 1978 Third Stage - 1986 Walk On - 1994 Greatest Hits - 1997 Rock & Roll Band - 1998 Corporate America - 2002 Состав: Tom Scholz - гитара, клавишные, ударные Kimberley Dahme - бас, вокал, гитара Fran Cosmo - вокал, гитара Gary Pihl - гитара Anthony Cosmo - гитара, вокал Скрыть...
Популярные аккорды Boston:
алфавиту | просмотрам | случайно
  • |-------3--2------------------------0----0-----------3--------|
    |---3--------3-----3-----3------------3----3---3--3----3---0--|
    |-----2--------0-----0-----0------------0----0---0--0----0----|
    |-0-----------------------------------------------------------|
    |-----------------3-----2--------3----------------------------|
    |-----------------------------3-------------------------------|
    
    |-------------------------------------------------|
    |--13-12h13p12-12-10-13-12--10h12p10-13-12-10-----|
    |-------------------------12----------------------|
    |-------------------------------------------------|
    |-------------------------------------------------|
    |-------------------------------------------------|
    
    |-------------------------------------------------|
    |-------------------------------------------------|
    |-------------------------------------------------|
    |----------5-5-5--9-9--7-7-7----------------------|
    |--5-5-x-x-3-3-3--7-7--5-5-5----------------------|
    |--3-3-x-x----------------------------------------|
    
    |---0--------0----0---0--------3-----2---0---2-----|
    |---3--------3----2---0---2----3-----3---0---3-----|
    |---0--------2----2---2---2----0-----2---0---2-----|
    |---2--------2----2---2---2----0-----0---2---0-----|
    |---2--------------------------2---------2---------|
    |---0--------------------------3-----2---0---------|…
  • Intro:                            
    ----x-x---x-x--x-x-x---x-x-x-x------------------------------
    ----x-x---x-x--x-x-x---x-x-x-x------------------------------
    ----6-x---x-x--x-x-x---9-9-x-x-----(Repeat 2x)--------------
    d---6-x---7-7--x-x-x---9-9-9-9------------------------------
    a---4-x---7-7--x-x-x---7-7-9-9------------------------------
    e---x-x---5-5--x-x-x---x-x-7-7------------------------------
    
    ------------------------------------------------------------
    ------------------------------------------------------------
    ------------------------------------------------------------
    ----3/5---3------------------3------------------------------
    ------------7---4-4-4--4-6-7---6-7-6-----4-4-4--4-6-7-------
    -------------------------------------7----------------------
    
    ------------------------------------------------------------
    ------------------------------------------------------------
    ------------------------------------------------------------
    --4--6^----4-6^p4---------------3---------------------------
    -------------------4-4-4--4-6-7---6-7-6------4-4-4---4-6-7--
    -----------------------------------------7------------------
    
    ------------------------------------------------------------
    ------------------------------------------------------------
    ------------------------------------------------------------
    ----4-6^---4--6^p4------------------------------------------
    --------------------4-4-------------------------------------
    ------------------------------------------------------------…
  • e |------------------------------------------------------------------|
    b |------------------------------------------------------------------|
    g |--3--5--6--5--3-----------5--6--3--8--10~---3--5--3--5--6-----6---|
    d |--3--5--6--5--3--6--5--3--5--6--3--8--10~---3--5--3--5--6--6--6---|
    a…
  • Intro A (Guitar 1)
    e--/14--14-14----9---9---x-x-x-x---2---4--5--4-----------
    B--/15--15-15---10--10---x-x-x-x---3---5--5--5-----------
    G--/14--14-14----9---9---x-x-x-x---2---4--4--4-----------
    D--------------------------------------------------------
    A--------------------------------------------------------
    E--------------------------------------------------------
    
    (continued)
    e--/14--14-14----9---9---x-x-x-x---2---2---4-------------
    B--/15--15-15---10--10---x-x-x-x---3---3---5-------------
    G--/14--14-14----9---9---x-x-x-x---2---2---4-------------
    D--------------------------------------------------------
    A--------------------------------------------------------
    E--------------------------------------------------------
    
    (continued)
    e--/14--14-14----9---9---x-x-x-x---2---4--5--4-----------
    B--/15--15-15---10--10---x-x-x-x---3---5--5--5-----------
    G--/14--14-14----9---9---x-x-x-x---2---4--4--4-----------
    D--------------------------------------------------------
    A--------------------------------------------------------
    E--------------------------------------------------------
    
    (continued)
    e--/14--14-14----9---9-----------------------------------
    B--/15--15-15---10--10-----------------------------------
    G--/14--14-14----9---9--11--9--7-------------------------
    D-----------------------11--9--7-------------------------
    A------------------------9--7--5-------------------------
    E--------------------------------------------------------
    
    Intro…
  • Intro: rhythm fig. 1
        G                C/G 
    e|---3------3------3-3-----3--3----3--3-3---|
    b|---0------0------0-0h1---1--1----1--1p0---|
    g|o--0------0------0-0-----0--0----0--2p0--o|
    d|o--0------0--------0h2---2--2----0--0-0--o|
    a|------------------------------------------|
    E|---3------3--------3----------------------|
    
    Verse…
  • Intro goes like this:
    
    ---------------------|--------------------------------------
    ---------------------|--------------------------------------
    ----2----2---2-----2-|--------------------------------------
    ----2----2-----------|--------------------------------------
    -0----0--------3h4---|--------------------------------------
    ---------------------|--------------------------------------…
  • e -------------------------------------------------------
    B -------------------------------------------------------
    G -7---7---7-7-7-7---------------------------------------
    D -7---7---7-7-7-7--7-7--7-7-8-8--8-8-8-8--10-10--10-10--
    A…
  • THIS IS BASICLY A 5-NOTE SONG WITH THE EXCEPTION OF MAYBE 4 NOTES IN THE SOLO. 
    
    e------------------------------------------------------------------------------ 
    b------------------------------------------------------------------------------…
  • ------------------------|-------------|---------------------
    ------------------------|-------------|---------------------
    -4--4--4-4-4-4--4-----2-|-4-4-4-4-----|---------------------
    -4--4--2-4-2-4--4--2--2-|-4-4-4-4-----|---------------------
    -2--2--2-2-2-2--2--2--0-|-2-2-2-2-etc-|---------------------
    -------------------0----|-------------|---------------------…
  • Intro - B C#m E F#
    
      B               C#m E   F#            B   C#m  E  F#
    She's downright into herself, it's so untrue
      B               C#m E   F#            B   C#m  E  F#
    She's dolled right in so well, this can't be…
  • e------------------------------------------------------------------|
    b------------------------------------------------------------------|
    g------------------------------------------------------------------|
    d-------------9---9------------------------------------------------|
    a--9--9--9----7---7----9------7------------------------------------|
    e--7--7--7-------------7------5------------------------------------|
    
    the…
  • -----------8-8------8-------|-10----10-10----|-8--8------8---7|8-----8-12---8-|
    -----------8------8------8--|--8-8---8--8---8|10-10-----10----|8-----8--------|
    -----------9----------------|----------------|-9------9-------|9-9---9--------|
    ----------10---10-----10----|--9---9------9--|-7----7------7--|---------------|
    ----------------------------|----------------|----------------|10--10----10---|
    ----------------------------|----------------|----------------|---------------|…
  • ----------0-------------------------------------
    -------------------------3--------3-----------2-
    -------2-----2-p0-----0--------------2--------2-
    -------------------------------4-----------2----
    ----0--------------0--------0-----------0-------
    ------------------------------------------------
    
    It's…
Наверх