Аккорды «Box Car Racer»

Box Car Racer
История группы началась в 2001 году, когда Том Делонг (Tom Delonge) написал несколько песен во время тура Blink-182. У него вышли мрачные тексты и мрачная музыка, и он понял, что это нельзя выпускать под маркой Blink-182. Тогда он выбрал время и отправился в студию для записи. Фактически, на этом альбоме Том играет на всех инструментах кроме ударных, за которыми по-прежнему его друг из Blink-182 Трэвис Баркер (Travis Barker). Позднее в альбоме приняли участие и Марк Хоппус (Mark Hoppus) из Blink-182,… Читать полностью... История группы началась в 2001 году, когда Том Делонг (Tom Delonge) написал несколько песен во время тура Blink-182. У него вышли мрачные тексты и мрачная музыка, и он понял, что это нельзя выпускать под маркой Blink-182. Тогда он выбрал время и отправился в студию для записи. Фактически, на этом альбоме Том играет на всех инструментах кроме ударных, за которыми по-прежнему его друг из Blink-182 Трэвис Баркер (Travis Barker). Позднее в альбоме приняли участие и Марк Хоппус (Mark Hoppus) из Blink-182, а также Тим Армстронг, фронтмен популярной панк-группы Rancid. Затем в группу были взяты гитарист Дэвид Кеннеди (David Kennedy) и басист Энтони Селестино (Anthony Celestino). Первый концерт группа дала в апреле 2002 года, а 21 мая состоялся релиз альбома. Первый сингл группы "I Feel So" вышел 14 июня. Второй сингл "There Is" так и не состоялся, хотя видео на песню было отснято 18 сентября и даже крутилось по MTV. Это была просто возможность для Тома сыграть более мрачную музыку, и группа никогда не претендовала на что-нибудь большее -- у нее был всего один-единственный тур в течении месяца с 25 октября по 26 ноября 2002 года. После этого тура группа затихла, а все ее участники вернулись к своим повседневным делам. И хотя в течение 2002 года ходили слухи, что группа собирается записывать второй альбом, этого так и не произошло. Дискография: Альбом: Box Car Racer Лейбл: Geffen Records Скрыть...
Популярные аккорды Box Car Racer:
алфавиту | просмотрам | случайно
  • e-------------------------------------------------------|
    B-------------------------------------------------------|
    G-----------------777-----------------------------------|
    D-----------------xxx-----------------------------------|
    A----5--5--5--5---555-----------------------------------|
    E---2/3-3-2/3-3-----------------------------------------|
    
    
    e-----------------------------------------------------|
    B-----------------------------------------------------|
    G-----------------------------------------------------|
    D-----------------------------------------------------|
    A-10-10-9-9-7-7-9-9-----------------------------------|
    E-----------------------------------------------------|
    
    e------------------------------------------------|
    B------------------------------------------------|
    G------------------------------------------------|
    D------------------------------------------------|
    A-5-5---4-4--------------------------------------|
    E-3-3---2-2--------------------------------------|
    
    
    e-----------------------------------------------------|
    B-----------------------------------------------------|
    G-----------------------------------------------------|
    D--------------88888888-66666666-88888888-------------|
    A-222222222----66666666-44444444-666666666------------|
    E-000000000-------------------------------------------|
    
    
    e---------------------------------------------|
    B---------------------------------------------|
    G--4444444444444444444------------------------|
    D--xxxxxxxxxxxxxxxxxxx------------------------|
    A--2222222222222222222------------------------|
    E---------------------------------------------|…
  • Tuning: Standard
    
         E A D G B E  
         
    C-   X 3 2 0 1 X
    C/B- X 3 0 0 1 X
    F*-  X 3 3 2 1 X
    G*-  X 5 5 4 3 X
    EM-  0 2 2 0 0 X 
    
    
           C                            C/B
    This vacation's useless These white pills aren't…
  • Intro
    G-4-44-44-4h6-4-44-44h6-4-44-44h6----8------------------------
    D-------------6-66-66~--4-44-44-------9-8h9-------------------
    A-------------------------------------------------------------
    E-------------------------------------------------------------
    
    Verse
    G-------------------------4~------1~--------------------------
    D----------------------------------------6~-------------------
    A--------------------12--------------------------------------
    E-------------------------------------------------------------
    
    Chorus…
  • Play after the drum solo
    
    
    E----------------------------------------------------|
    B----------------------------------------------------|
    G------------2~---------2~-----------2~--------------|         play this through out…
  • Intro
    G-4-44-44-4h6-4-44-44h6-4-44-44h6----8----------------------
    D-------------6-66-66~--4-44-44-------9-8h9-----------------
    A-----------------------------------------------------------
    E-----------------------------------------------------------
    
    Verse
    G-------------------------4~------1~------------------------
    D----------------------------------------6~-----------------
    A--------------------12------------------------------------
    E-----------------------------------------------------------
    
    Chorus…
  • Em, G, Em, G,
    
    
    Em
       Caught off guard
    G
       All worked up
    Em               G
       The air is as dark and cold as night
    Em
       Let me go
    G
       I'm not done
    Em                       G
      I swear i'll take just one lifetime…
  • Intro Pt1:
    Guitar 2:
    E|-------------------------------------------------------------------|
    B|-------------------------------------------------------------------|
    G|---66666666666666666666666666666666--------------------------------|
    D|---xxxxxxxxxxxxxxxxxxxxxxxxxxxxxxxx--------------------------------|
    A|---44444444444444444444444444444444--------------------------------|
    E|-------------------------------------------------------------------|
    
    Intro…
  • Verse play alot of times
    -------------------------------------------
    -------------------------------------------
    66-------------66--------------------------
    --7777777777777--66666666666666666666666666
    
    Chorus x2
    -------------------------------------------
    -------------------------------------------
    ----------6-6-6-6-6----------7-7-7-7-7-----
    0-0-0-0-0----------0-0-0-0-0---------------
    
    -------------------------------------------
    -------------------------------------------
    -------------------------------------------
    0-0-0-0-0-4-4-4-4-0-0-0-0-0-5-5-5-5-5------…
  • (light distortion)
    e|----------------------------------|
    B|----------------------------------|x2
    G|----------------------------------|
    D|---7-7-7-7----7-7-7----7-7-7-7-7--|
    A|---7-7-7-7----7-7-7----7-7-7-7-7--|
    E|---5-5-5-5----5-5-5----5-5-5-5-5--|…
  • Intro - Note: Wait for the guitar to play its riff twice.  Then, continue.
    G|-------------------------------------------------------------------
    D|-------------------------------------------------------------------
    A|---------------7-7-7-7-7-7---5-5-5-5-5-5---5-5-5-5-5-5-------------…
  • Intro
    Gtr1(6x):
    E-----------------------------------------------------------
    B-----------------------------------------------------------
    G-11-11-11-11-11--7-7---9-9-9-9---7-7---11-11-11-11---7-7-7-  
    D-x--x--x--x--x---x-x---x-x-x-x---x-x---x--x--x--x----x-x-x-
    A-9--9--9--9--9---5-5---7-7-7-7---5-5---9--9--9--9----5-5-5-
    E-----------------------------------------------------------
    
    Gtr2(2x):
    (Comes…
  • Intro (It's sorta hard 2 tell whats
    hapennin here but i think hes just doin this
    e|--------------------------------------------------------|
    B|--------------------------------------------------------|
    G|--------------------------------------------------------|
    D|--------------------------------------------------------|
    A|-7777777777777777---(just…
  • e|------------------------------------------------------------------------|
    B|--------------0---------------0-----------------------------------------|
    G|--------------0---------------0-----------------------------------------|
    D|--5---5---5---5---5---5---5---5---5---5---5-----------------------------|
    A|------------------------------------------------------------------------|
    E|--3---3---3---3---3---3---3---3---3---3---3-----------------------------|…
  • Main Riff
    e|----------------------------------------------------------------|
    B|----------------------------------------------------------------|
    G|-6------------6-6------------6-6------------6-6-----------------|
    D|-6-7-77-77-77-6-6-7-77-77-77-6-6-7-77-77-77-6-6-7-77-77-77-6-7--|
    A|-4-7-77-77-77-4-4-7-77-77-77-4-4-7-77-77-77-4-4-7-77-77-77-6-7--|
    E|---5-55-55-55-----5-55-55-55-----5-55-55-55-----5-55-55-55-4-5--|
    
    Bridge
    e|----------------------------------------------------------------|
    B|----------------------------------------------------------------|
    G|----------------------------------------------------------------|
    D|-4---6---7------------------------------------------------------|
    A|-4---6---7------------------------------------------------------|
    E|-2---4---5------------------------------------------------------|…
  • intro (both guitars)
    e|--------------------------------------------------------------------|
    B|--------------------------------------------------------------------|
    G|-8-88-8-88-88888--6-66-6-66-66666--4-44-4-44-44444--6-6-6-6-3-3-3-3-|
    D|-8-88-8-88-88888--6-66-6-66-66666--4-44-4-44-44444--6-6-6-6-3-3-3-3-|
    A|-6-66-6-66-66666--4-44-4-44-44444--2-22-2-22-22222--4-4-4-4-1-1-1-1-|
    E|--------------------------------------------------------------------|
    
    verse
    guitar…
  • Intro X6
    |e|-------------------------------------|
    |B|-------------------------------------|
    |G|-------------------------------------|
    |D|-----7-6----7-6----6-7----7-9--------|
    |A|--77-----55------------99------------|
    |E|----------------55-------------------|
    
    
    Verse…
  • verse
    e----------------------------------------------------
    b----------------------------------------------------
    g----------------------------------------------------
    d----7-7-7-7-7-7-7-7-7-7-7-7-7--6-4-4-4-4-4-4-4-4-4-4
    a----7-7-7-7-7-7-7-7-7-7-7-7-7--6-4-4-4-4-4-4-4-4-4-4
    e----5-5-5-5-5-5-5-5-5-5-5-5-5--4-2-2-2-2-2-2-2-2-2-2…
  • e|----------------------------------------
    B|----------------------------------------
    G|----------------------------------------
    D|----4--4-----4------4---4------4---4----   2X'S
    A|-2-2--2---------------------------------
    E|---------4-4----0-0---0----2-2---2------
    
    
    GUITAR…
  • intro
    -------------------------------------------------------|
    -------------------------------------------------------|
    -------------------------------------------------------|
    -2-2-2-2-2-2---4----5-5-5-5-5-5------------------------|
    -2-2-2-2-2-2---4----5-5-5-5-5-5------------------------|
    -0-0-0-0-0-0---2----3-3-3-3-3-3------------------------|
    
    Verse
    --------------------------------------------------------|
    --------------------------------------------------------|
    --------------------------------------------------------|
    -2-2-2-2-2-2-------5-5-5-5-5-5--------------------------|
    -2-2-2-2-2-2-------5-5-5-5-5-5--------------------------|
    -0-0-0-0-0-0-------3-3-3-3-3-3--------------------------|
    
    Chorus
    --------------------------------------------------------------|
    --------------------------------------------------------------|
    ----------------5-5-5-5-5---------------------2-2-2-2-2-------|
    -2-2-2-2-2------5-5-5-5-5------5-5-5-5-5------2-2-2-2-2-------|
    -2-2-2-2-2------3-3-3-3-3------5-5-5-5-5------0-0-0-0-0-------|
    -0-0-0-0-0---------------------3-3-3-3-3----------------------|
    
    Play…
Наверх