Аккорды «Butterfingers»

Butterfingers
Butterfingers - австралийская музыкальная группа из Ипсвича, штат Квинсленд (Ipswich, Queensland), в 2001-2009 годах работавшая в жанрах хип-хоп, альтернативный рок, панк. Большая часть их релизов вышла на их собственном лейбле 'Valley Trash Records'. Группа выпустила 2 альбома, 'Breakfast at Fatboys' в мае 2004-го и 'The Deeper You Dig…' в июне 2006-го, и 7 синглов, последний из которых, 'Nothin' Much Happens', вышел 7 октября 2007 года. В том же году музыканты стали обладателями музыкальной австралийской… Читать полностью... Butterfingers - австралийская музыкальная группа из Ипсвича, штат Квинсленд (Ipswich, Queensland), в 2001-2009 годах работавшая в жанрах хип-хоп, альтернативный рок, панк. Большая часть их релизов вышла на их собственном лейбле 'Valley Trash Records'. Группа выпустила 2 альбома, 'Breakfast at Fatboys' в мае 2004-го и 'The Deeper You Dig…' в июне 2006-го, и 7 синглов, последний из которых, 'Nothin' Much Happens', вышел 7 октября 2007 года. В том же году музыканты стали обладателями музыкальной австралийской премии 'APRA Award' за композицию 'Get Up Outta the Dirt'. В составе группы четыре участника - вокалист и бас-гитарист Дейв Крейн (Dave 'The Chainsaw' Crane) по прозвищу Креншо, вокалист и ударник Дэмиен Грин (Damien Green), вокалист и гитарист Эдди Марк Джекобсон ('Evil' Eddie Mark Jacobson) по прозвищу Эвил и вокалист и перкуссионист и диджей Олли Томас (Olly Thomas). Группа родилась, когда ведущий вокалист Эдди Марк Джекобсон предложил дать концерт в 'The Zoo', баре в Брисбене (Brisbane), хотя у него не было никакой группы. Бар пошел навстречу, забронировал вечер выступления, и через две недели абсолютной паники и неровного дебютного выступления Джекобсон собрал постоянную группу, состоящую из Олли Томаса, Дейва Крейна и Дэмиена Грина. Их первые два сингла, 'Everytime' и 'I Love Work', достигли 38-го и 15-го мест в 'горячей сотне' радиостанции Triple J 2003 года. Их следующий сингл 'Yo Mama' также попал в ротацию на Triple J, как и дебютный альбом группы 'Breakfast at Fatboys', получивший от Triple J звание 'Альбом недели'. Альбом дебютировал на 15-й позиции в чарте 'ARIA Album chart' и был номинирован как 'лучший независимый релиз' на музыкальную премию 'ARIA Award'. 'Yo Mama' занял 17-е место в 'горячей сотне' Triple J в 2004 году. В октябре 2004 года 'Butterfingers' были приглашены в телевизионную программу 'Rage' музыкального телеканала ABC1. В марте 2005 'Butterfingers' подписали соглашение с 'Festival Mushroom Records' путем сделки между 'FMR' и 'Valley Trash', их собственным лейблом. Их первый и последний общий релиз состоялся в июне 2005-го, когда вышел сингл 'Figjam (Fuck I'm Good, Just Ask Me)', занявший 50-е место в национальном хит-параде. В октябре 2005-го сингл претендовал на премию 'ARIA Award', а в 'горячей сотне' Triple J за 2005 год 'Figjam' и предыдущий сингл 'Jesus I Was Evil', кавер-версия песни Дарси Клея (Darcy Clay), заняли 11-е и 69-е места соответственно. 27 мая вышел новый альбом группы, 'The Deeper You Dig...', достигший 14-й позиции в чартах. Сингл с этого альбома, 'Get Up Outta the Dirt', был выпущен 3 июня 2006 года и стал 83-м в 'горячей сотне' Triple J в 2006-м и принес музыкантам 'APRA award'. Последний сингл группы, 'Nothin Much Happens', стал настоящим хитом, на него сняли видеоклип, но вскоре музыканты ушли в отпуск. Во время перерыва Эдди Джекобсон начал выступать с брисбенской панк-группой 'Spitfire Liar' и записал сольный сингл 'Queensland', заявив об официальном распаде группы 'Butterfingers'. Выпуск дебютного сольного альбома Джекобсона назначен на начало 2011 года. Скрыть...
Популярные аккорды Butterfingers:
алфавиту | просмотрам | случайно
  • Intro 4x
    
    E--2-2-3-2--2-2-2-3-2-0--------0-------------------|
    B------------------------3-2-3---------------------|
    G--------------------------------------------------|
    D--------------------------------------------------|
    A--------------------------------------------------|
    E--------------------------------------------------|
    
    Verse…
  • Tuning : Half step down & drop Db
    
    Intro : (acoustic guitar)
    
    intro 1
     |-------------------------------------------------------------------------------------------------------|
     |---------------5--------5---------5--------5---------5-------------------------------------------------|…
  • intro
    e----------2--4b5p4--2--4--2-------------------------------------------|
    B---4--5---------------------------------------------------------------|
    G----------------------------------------------------------------------|
    D----------------------------------------------------------------------|
    A----------------------------------------------------------------------|
    E----------------------------------------------------------------------|
    
    
    Verse
    e---------------------------------------------------------------------|
    B---------------------------------------------------------------------|
    G---------------------------------------------------------------------|
    D---------------------------------------------------------------------|
    A---6--6-6-6-6-6-6-----4--6-------------------------------------------|
    E---4--4-4-4-4-4-4--5--------5/4--------------------------------------|
    
    
    C/o
    e---------------------------------------------------------------------|
    B---------------------------------------------------------------------|
    G---------------------------------------------------------------------|
    D-------6-6/4--4-4-4----------------------6-6-------------------------|
    A---6---4-4/2--2-2-2--6-6-6-6-6-------2---4-4-------------------------|
    E---4---------------------4-4-4-4-4-0-0-------------------------------|
    
    
    Outro
    e---------------------------------------------------------------------|
    B---------------------------------------------------------------------|
    G---------------------------------------------------------------------|
    D-------6-6/4--4-4-4--------------------------------------------------|
    A---6---4-4/2--2-2-2--6-6---------------------------------------------|
    E---4-----------------4-4---------------------------------------------|…
  • Tuning : Down 1/2 step (D#-G#-C#-F#-A#-D#)
    -------------------------------------------------------------------------------
    
    [INTRO] Bass
         	 				then fill in riff here
    d#|------------------------------|-------------12^-----------------------------|
    A#|------------------------------|---------------------------------------------|
    F#|------------------------------|---------------------------------------------|
    C#|------------------------------|---------------------------------------------|
    G#|------------4-x8------0-x8----|---------------------------------------------|
    D#|---0-x16----------------------|---------------------------------------------|
    
    then…
  • intro(Solo first)
    
    
    Verse:
    B5       F#5           G#5 
    Show the way from down below
         E5           B5
    Welcome home i'd feel above
         E5          G#5         F#5  E5
    Putting those who never shower with my advice
    
    B5…
  • Dropped D
    
    Intro Bass 4x
    E--------------------------------------------------|
    B--------------------------------------------------|
    G--------------------------------------------------|
    D--------------------------------------------------|
    A--------------------------------------------------|
    D--0-7-8-7-0-7-10-8-7-3----------------------------|
    
    Guitar…
  • Verse (Flowers at dawn.........)
    
    E--------------------------------------------------|
    B--------------------------------------------------|
    G--------------------------------------------------|
    D---------4---5---4---5-----4---5---4--------------|
    A--5--5---2---3---2---3-----2---3---2---5---5------|
    E--3--3---------------------------------3---3------|
    
    E--------------------------------------------------|
    B--------------------------------------------------|
    G--------------------------------------------------|
    D--7--5---4---5-----7---5---4----------------------|
    A--5--3---2---3-----5---3---2----------------------|
    E--------------------------------------------------|
    
    E--------------------------------------------------|
    B--------------------------------------------------|
    G--------------------------------------------------|
    D---------4---5---4---5-----4---5---4--------------|
    A--5--5---2---3---2---3-----2---3---2---5---5------|
    E--3--3---------------------------------3---3------|
    
    E--------------------------------------------------|
    B--------------------------------------------------|
    G--------------------------------------------------|
    D--7--5---4---5-----7---5---4---7-7-7-7-7-7--------|
    A--5--3---2---3-----5---3---2---5-5-5-5-5-5--5-5-5-|
    E--------------------------------------------3-3-3-|
    
    Chorus…
  • first Intro :
    lead guitar
    e|---------------------------------
    b|---------------------------------
    g|---------------------------------
    d|-0--10--10-10-10---9-10---0-10--- 4x
    a|---------------------------------
    E|---------------------------------
    
    second…
  • Riff 1
    
    e|---------------------------------------|
    B|---------------------------------------|
    G|--------------------3--3---------------|
    D|-3--3---------------3--3---------0-3-0-|
    A|-3--3--------0-2-0--1--1---0-0-3-------|
    E|-1--1--0-0-3---------------------------|…
  • Intro (F C Am G)
    
    
    Guitar 1
    E--------3---1---0--------------3---1---0----------
    B------1---0---0------------------0---0------------
    G----2------------------------0--------------------
    D--3------------------------2----------------------
    A-------------------------3------------------------
    E--------------------------------------------------
    
    E---------3---1---0--------------3---1---0---------
    B-----------0---0------------------0---0-----------
    G------2-------------------------------------------
    D----2------------------------0--------------------
    A--0------------------------2----------------------
    E-------------------------3------------------------
    
    Guitar…
  • Intro 2X
    E--------------------------------------------------|
    B--------------------------------------------------|
    G--7-9/11-11-11-11-9-11-12-11-9-11/12-12-12-12-----|
    D--------------------------------------------------|
    A--------------------------------------------------|
    D--------------------------------------------------|
    
    E--------------------------------------------------|
    B-----------------------------15-15----------------|
    G--11-12-14-12-11-12/14-14-14-------14-16-14h16----|
    D--------------------------------------------------|
    A--------------------------------------------------|
    D--------------------------------------------------|
    
    E--------------------------------------------------|
    B--------------------------------------------------|
    G--12-11-12-11-9-11-9h11-7-------------------------|
    D--------------------------------------------------|
    A--------------------------------------------------|
    D--------------------------------------------------|
    
    Yeah........(open…
  • Drop D : D A D G B E
    
    
    Intro : Drum Beat
    
    Yeahhhhhhhh (Intro Guitar 4X)
    
    E--------------------------------------------------|
    B--------------------------------------------------|
    G--------------------------------------------------|
    D--------------------------------------------------|
    A---2---4---2---2---0---2---5---5---0---0----------|
    D---2---4---2---2---0---2---5---5---0---0----------|
    
    Verse…
Наверх