Аккорды C418 - Minecraft

Добавлено: @romashka
Дата добавления: 13 Сентября 2022г.
Рейтинг:
0.0
Просмотров: 15
Транспонировать - +
e|-6-----4--------2--------6-----4-----------------| 
B|----------4-----------------------4-----2--------| 
G|----------------3--------------------------------| 
D|----------4-----------------------4--------------| 
A|-4-----------------------4-----------------------| (x3) 
E|-------------------------------------------------| 
  
  
e|-6-----4--------2--------6-----4-----2-----------| 
B|----------4-----------------------4-----2--------| 
G|----------------3-----------------------------3--| 
D|----------4-----------------------4--------------| 
A|-4-----------------------4-----------------------| 
E|-------------------------------------------------| 
  
  
e|-6--------------2-----4----6----4----6-----9-----| 
B|------2---4--------------------------------------| 
G|-------------------------------------------------| 
D|-------------------------------------------------| 
A|-------------------------------------------------| 
E|-------------------------------------------------| 
  
  
e|-6-----9--11----9-----6----4-----6-----4-----2---| 
B|-------------------------------------------------| 
G|-------------------------------------------------| 
D|-------------------------------------------------| 
A|-------------------------------------------------| 
E|-------------------------------------------------| 
  
  
e|-----------2----4---6---2------------------------| 
B|-2----4---------------------2--------------------| 
G|-------------------------------------------------| 
D|-------------------------------------------------| 
A|-------------------------------------------------| 
E|-------------------------------------------------| 
  
  
e|-6-----4--------2--------6-----4-----------------| 
B|----------4-----------------------4-----2--------| 
G|----------------3--------------------------------| 
D|----------4-----------------------4--------------| 
A|-4-----------------------4-----------------------| (x21 затем calando на последних 5) 
E|-------------------------------------------------| 
Наверх