Аккорды Caiman - Белый дым

Добавлено: @romashka
Дата добавления: 27 Сентября 2021г.
Рейтинг:
0.0
Просмотров: 52
Транспонировать - +
      Em  D        C       B
1|-3--3-5-2-32--0020--0----2-------|
2|--0---------------1---1---4-4--4-|
3|---0---------------0---0---4--4--|
4|--------0------------------------|
5|-----------------0-------2-------|
6|-0-------------------------------|

   Em     D        Am      B
1|-3-23-5-2-32--0020-------2232-002-|
2|--0---------------1-1--1----------|
3|-------------------2--2-----------|
4|--------0-------------------------|
5|-----------------0-------2--------|
6|-0--------------------------------|

             Em          D
На твоих ресницах белый дым
            C              B
Растворится и я в след за ним
             Em          D
На твоих ресницах белый дым
          Am         B
Пропадает он и я за ним
- 2 раза

 Em
Заметая душу всю ветрами
 Am        B
Запятнала ложными словами
  
      Em             Em/G
На твоих ресницах замерзшая вода
        Am          B
В небе белой птицей улечу туда
      Em             Em/G
На твоих ресницах замерзшая вода
        C            B
Как же мог влюбится раз и навсегда

        Em  
По парапетам мимо мины
       Em/G
Тот ребенок у витрин
      C
И я снова тут один
       B
Выдох дым дым

             Em          D
На твоих ресницах белый дым
             C              B
Раствориться и я в след за ним
             Em          D
На твоих ресницах белый дым
          Am         B
Пропадает он и я за ним
- 2 раза

Em          
Закрыв дверь, кричишь вслед
Am           B
Но ждешь когда верну я
Em
Внутри зверь, я с ним слеп
C            B
Но Сам жду что вернешься

       Em
Наши ссоры на балконе
        Em/G
Сто прощаний в коридоре
          C
С каждом разом смысла больше
         B
Чем той пасты во флаконе

       Em
Даже время тут не лечит
     Em/G
Оно только губит печень,
       Am
Вся любовь, моя боль
       B
Навсегда теперь со мной

             Em          D
На твоих ресницах белый дым
            C              B
Растворится и я в след за ним
             Em          D
На твоих ресницах белый дым
          Am         B
Пропадает он и я за ним
- 2 раза

      Em     D        Am      B
1|--023-23-5-2-32--0020-------2232-002-|
2|-0-------------------1-1--1----------|
3|----------------------2--2-----------|
4|-----------0-------------------------|
5|--------------------0-------2--------|
6|----0--------------------------------|

Оригинальная тональность F#m. Перебором лучше звучит,
можно стандартным-  бас 3231323. 
Наверх