Аккорды «Cake»

Cake
Стиль этой команды позиционируется большинством критиков как "альтернативный рок", хотя "кексы" на самом деле исполняют удивительную смесь фанка, хип-хопа, кантри, новой волны, джаза и гитарного рока. Певец, композитор, он же основатель "Cake" Джон Маккри 80-е годы провел в Сакраменто, выступая как соло, так и в составе других групп. К концу 80-х Джон понял, что единственный путь добиться успеха на музыкальном поприще – это переезд в Лос-Анджелес. По прибытии в "город ангелов" Маккри усиленно выступал… Читать полностью... Стиль этой команды позиционируется большинством критиков как "альтернативный рок", хотя "кексы" на самом деле исполняют удивительную смесь фанка, хип-хопа, кантри, новой волны, джаза и гитарного рока. Певец, композитор, он же основатель "Cake" Джон Маккри 80-е годы провел в Сакраменто, выступая как соло, так и в составе других групп. К концу 80-х Джон понял, что единственный путь добиться успеха на музыкальном поприще – это переезд в Лос-Анджелес. По прибытии в "город ангелов" Маккри усиленно выступал в кофейнях, играя сольные акустические программы. Летом 1991-го музыкант впервые появился под именем "Cake". Как выяснилось, Лос-Анджелес не был готов к радушному приему Маккри. В этом городе все было то же самое, только дороже, поэтому Джон вернулся в Сакраменто. Здесь музыкант попытался превратить сольный проект в полноценную команду. Под знамена "Cake" были призваны ударник Фрэнк Френч, трубач Винс ди Фиоре, гитарист Грег Браун и басист Шон Макфессел. В 1993-м квинтет выпустил сингл "Rock'n'roll lifestyle", после чего приступил к записи дебютного лонгплея. Всю работу по выпуску альбома вплоть до оформления обложки музыканты проделали самостоятельно и оплачивали все из своего кармана. Однако им повезло, и на "Motorcade of generosity" обратила внимание фирма "Capricorn records", взявшаяся за распространение альбома по всей Америке. Полноценный релиз состоялся в 1994 году, когда в составе произошло несколько замен. В результате перестановок место бас-гитариста занял Виктор Дамиани, а за ударными оказался Тодд Ропер. Пока группа усиленно колесила по Соединенным Штатам, "Capricorn" переиздала сингл "Rock'n'roll lifestyle", снискавший некоторый успех на студенческих и альтернативных радиостанциях. В 1996-м "Cake" сделали серьезный прорыв со своим вторым альбомом. Благодаря хиту Брауна "The distance" диск "Fashion nugget" пробился в Топ 40, а его тираж составил свыше миллиона экземпляров. Несмотря на успех из группы ушли Грег Браун и Виктор Дамиани, основавшие нововолновый проект "Deathray". Маккри хотел было распустить команду, но после возвращения на бас Гэйба Нельсона решил этого не делать. Замены Брауну сразу не нашлось, поэтому третий альбом записывался с кучей приглашенных гитаристов. Только после выхода "Prolonging the magic" в коллективе появился постоянщик Ксан Маккурди. "Magic", сопровождаемый хитами "Nevere there", "Sheep go to heaven", "Let go", также как и его предшественник, перепрыгнул платиновую отметку. В 2000-м "Cake" заключили новый контракт с "Columbia records", где на следующий год дебютировали с альбомом "Comfort eagle". С ним "кексы" поставили свой новый чартовый рекорд – 13-я позиция. После выхода "Comfort Eagle" от дел отошел Тодд Ропер, решивший вплотную заняться семейными проблемами. Его сменил Пит Макнил, но его пребывание в "Cake" было недолгим, и во время сессий "Pressure Chief" он уступил место Пауло Балди. Скрыть...
Популярные аккорды Cake:
алфавиту | просмотрам | случайно
  • Riff 1
    G|-----------------------------|
    D|-------7----5--5----5h7-5----|
    A|----------7------7--------7--|
    E|-5--5------------------------|
    
    G|-------7----5--5----5h7-5----|
    D|----------7------7--------7--|
    A|-5--5------------------------|
    E|-----------------------------|
    
    G|-----------------------------|
    D|-------5----3--3----3h5-3----|
    A|----------5------5--------5--|
    E|-3--3------------------------|
    
    G|-------5----3--3----3h5-3----|
    D|----------5------5--------5--|
    A|-3--3------------------------|
    E|-----------------------------|
    
    G|-----------------------------|
    D|-------3----1--1----1h3-1----|
    A|----------3------3--------3--|
    E|-1--1------------------------|
    
    G|-------4-------4--4--4-------|
    D|----4-----4-4-----------4----|
    A|-2---------------------------|
    E|-----------------------------|
    
    G|-----------------------------|
    D|-------2----2--2--2--2-------|
    A|----------2-------------2----|
    E|-0--0------------------------|
    
    G|-----------------------------|
    D|-2--2--4--4--5--5--6--6------|
    A|-----------------------------|
    E|-----------------------------|
    
    Riff…
  • Verse 1
    
                        Cm
    You won't admit you love me
        Fm
    And so
    Fm       Cm
    How am I ever
       Fm
    To know
    Fm       Cm
    You only tell me
    Cm       G        Cm
    Perhaps, perhaps, perhaps
    
    Verse 2
    
                      Cm
    A…
  • ------------------------------------------------------------------------------
    -2-2--2-2-2--3-3-3--3-3-3-3-2--2-2--2-2--5-5-5-5-5-5-5--2---------------------
    -2-2--2-2-2--2-2-2--2-2-2-2-2--2-2--2-2--4-4-4-4-4-4-4--2---------------------
    ------------------------------------------------------------------------------
    ------------------------------------------------------------------------------
    ------------------------------------------------------------------------------
    intro-…
  • intro: G  D  C  D     followed by a quick  C  D
    
    
    G                         D
    Last night I said to her
                                        C
    I didn't want to live inside a lie.
    If she wants him more than she wants me,…
  • intro                     riff 1
    G|-----------|----------------------------------------|
    D|-----------|-------------4X554-5-------------------|
    A|-03-04-0505|-5-4X554-5----------4X554-03-04-05-5-|
    E|-----------|----------------------------------------|…
  • INTRO: Repeat this part all the time                             
    e
    |------------------------------------------------------------
    B
    |------------------------------------------------------------
    G
    |------------------------------------------------------------
    D
    |--------------------2---------------------------------------
    A
    |-------------------------0-------3--2--3--1-----------------
    E
    |------------0--0--------------------------------------------…
  • Order:
    
    Intro
    A (no guitar)
    A
    
    B
    
    A (no guitar)
    A
    
    B (v2)
    
    C
    
    A (no guitar)
    A
    
    B 
    
    Intro:
    
    e|--------------------------------------------|
    B|--------------------------------------------|
    G|--------------------------------------------|
    D|---------------------------2h4-55-4h5p4p2---|
    A|-------2---------2---0-2h4----------------4-|
    E|-0-2h4-----0-2h4----------------------------|
    
    e|--------------------------------------------|
    B|--------------------------------------------|
    G|--------------------------------------------|
    D|---------------------------4----------------|
    A|-------2---------2---2-4/6---6-7-4-2--------|
    E|-0-2h4-----0-2h4---------------------4p2-0--|
    
    e|--------------------------------------------|
    B|---------------------5----------------------|
    G|-----------------4h6------------------------|
    D|-----------2-4/6----------------------------|
    A|-------2h4----------------------------------|
    E|-0-2h4--------------------------------------|
    
    A:
    
    e|--------------------------------------------|
    B|--------------------------------------------|
    G|--------------------------------------------|
    D|-------------------4-6-4-6-4-6-4-6----------|
    A|-2-4-2-4-2-4-2-4---2-2-2-2-2-2-2-2----------|
    E|-0-0-0-0-0-0-0-0----------------------------|
    
    e|--------------------------------------------|
    B|--------------------------------------------|
    G|--------------------------------------------|
    D|-2-4-2-4-2-4-2-4----------------------------|
    A|-0-0-0-0-0-0-0-0---2-4-2-4-2-4-2-4----------|
    E|-------------------0-0-0-0-0-0-0-0----------|
    
    B:
    
    e|--------------------------------------------|
    B|--------------------------------------------|
    G|--------------------------------------------|
    D|-------------------------2---------2--------|
    A|-2-4-2-4-2-4-2-4---0-2h4-----0-2h4----------|
    E|-0-0-0-0-0-0-0-0----------------------------|
    
    e|---------------------------------------------------|
    B|---------------------------------------------------|
    G|---------------------------------------------------|
    D|--------------------------------4h6-77-6h7p6p4-----|
    A|-------2h4-55-4h5p4p2-----2-4/6----------------6---|
    E|-0-2h4----------------4----------------------------|
    
    e|--------------------------------------------|
    B|--------------------------------------------|
    G|--------------------------------------------|
    D|-2---------------------------2-------2------|
    A|---4-2-------------2---0-2h4---0-2h4--------|
    E|-------4p2-0-0h2h4--------------------------|
    
    e|--------------------------------------------|
    B|--------------------------------------------|
    G|--------------------------------------------|
    D|--------------------------------4-----------|
    A|-------2h4-55-4h5p4p2-----2-4/6---6---------|
    E|-0-2h4----------------4---------------------|
    
    e|--------------------------------------------|
    B|---------------------5----------------------|
    G|-----------------4h6---6-4------------------|
    D|-----------2-4/6-----------6p4-2------------|
    A|-------2h4----------------------------------|
    E|-0-2h4--------------------------------------|
    
    B…
  • into power chords
    
    e|-------------------------------------------------|
    b|--3-3-3-3-3-3-3/5--------------------------------|
    g|--3-3-3-3-3-3-3/5--------------------------------|
    d|--3-3-3-3-3-3-3/5--------------------------------|
    a|-------------------------------------------------|
    E|-------------------------------------------------|
    
    fill
    e|---------------------------------------------|
    b|---5/7----3/5--3/5---------------------------|
    g|---------------------------------------------|
    d|---------------------------------------------|
    a|---------------------------------------------|
    E|---------------------------------------------|
    
    main…
  • A1:                             A2:
    G|--------------------------|   G|------------------|
    D|--------------------------|   D|----0-------------|
    A|--3--3--2--0--------------|   A|--3---2--0--------|
    E|--------------2-----------|…
  • Intro: normally done with an organ
    
    E-----------------------------------------|
    B-----------------------------------------|
    G-----------------------------------------|
    D-------4--------7------------------------|
    A--4-44--4--4-44--4--4-4445---------5-4--|
    E---------------------------5--5-55-------|
    
    E-----------------------------------------|
    B-----------------------------------------|
    G-----------------------------------------|
    D---------------7-------------------------|
    A-2-0---2-4-4/7----5-----7----------------|
    E-----5--------------5--7-----------------|…
  • MainRiff 
    ------------------------------- 
    ------------------------------- 
    -------------------------------    play x times 
    ------------------------------- 
    -5--3-5-3-5----3-5-3-0-------0- 
    -----------------------1--3----…
  • ----------------------------------------------|
    ----------------------------------------------|
    -2--2--2---3--3--3---2--2--7--5---------------|
    -3--3--3---5--5--5---3--3--8--7---------------|
    ----------------------------------------------|
    ----------------------------------------------|
    
    ----------------------------------------------|
    ----------------------------------------------|
    -7--7--7----8---8---8---------10---8--7-------|
    -8--8--8---10--10--10--10/12--12--10--8-------|
    ----------------------------------------------|
    ----------------------------------------------|…
  • Without the [B] pretty pink ribbon
    You'd [Ab] end up just like me
    Without the [E] pretty pink ribbon
    You'd [F#] float down to the sea
    
    Without the [B] pretty pink ribbon
    You'd [Ab] say just what you pleased
    Without the [E]…
  • Chords Used:
    E   0799XX
    B   799XXX
    A   577XXX
    
    Intro / Verse: 
    (Every second time you play this part drop the last note)
    D   9XXX
    A 7  XXX 9   7  7
    E    XXX 7  5  5 5
    
    Pre Chorus:
    E        B                  A…
  • Riff 1:
    e-------------------------------------9---------------------
    B-------------------7--7--9--7--9--10---9--7--9--7----------
    G----8--8--9--8--9------------------------------------------
    D-----------------------------------------------------------
    A-----------------------------------------------------------
    E-----------------------------------------------------------
    
    e-------------------------------------7---------------------
    B-------------------7--7--9--7--9--10---9--7----------------
    G----8--8--9--8--9---------------------------9--8-----------
    D-----------------------------------------------------------
    A-----------------------------------------------------------
    E-----------------------------------------------------------
    
    
    Riff…
  • G-------7------5------7-----5--
    D--0-0----7-7----0-0----7-7----
    A------------------------------
    E------------------------------
    
    G---------------------------
    D------7-----5-----7-----5--
    A--0-0---7-7---0-0---7-7----
    E---------------------------
    
    G-----------------------------
    D------4-----2-----4-----2----
    A--------4-4---------4-4------
    E--3-3---------3-3------------…
  • Intro 
    
    G|-----|-----|-----------|
    D|-----|-----|-3/4/6/8/9-|
    A|-----|-----|-----------|
    E|-6-|-6-|-----------|
    
    This is the main riff although he often changes the end, going up to
    9 on the G string sometimes and playing…
  • verse:
    
    G:-------------------------2-h4-2---------2-------------2/7-h9-7-
    D:---------2-------------2------------3-------3-----3------------
    A:-----3-------3-----3------------5-------------5----------------
    E:-5-------------5-----------------------------------------------
    
    
    G:---------------------------------------------------------------
    D:-----------------------------------2---5---2---5-2-------5-6-7-
    A:-----2---5---2-----5---2-------3-------------3-------3---------
    E:-3-------------3-----------5-3---------------------------------
    
    
    G:---------------------2-h4-2---------2-------------2/7-h9-7-----
    D:-----5-------------2------------3-------3-----3----------------
    A:-7-------7-----3------------5-------------5-------------------2
    E:-----------5-----------------------------------------------3---
    
    
    G:---------------------------------------4-----------------------
    D:-----------------------------2---5---2---5-2---------2---------
    A:---5---2-----5---2-------3---------------------3-5---------3---
    E:---------3-----------5-3-------------------------------5-------
    
    
    G:-----------------2-h4-2---------2-------------2/7-h9-7--------7
    D:-2-------------2------------3-------3-----3------------9-------
    A:-----3-----3------------5-------------5------------------10----
    E:-------5-------------------------------------------------------
    
    
    G:-7------------------------4------------------------------------
    D:---9------------2---5---2---5-2---------2---------2------------
    A:-------10---3---------------------3-5---------3-------3-----3--
    E:------------------------------------------5-------------5------
    
    
    G:--2-h4-2---------2-------------2/7-h9-7-------------------------
    D:2------------3-------3-----3------------------------------------
    A:---------5-------------5--------------------2---5---2-----5---2-
    E:----------------------------------------3-------------3---------
    
    
    G:-------------------3-------------------------------------------
    D:---------2---5---2---5---2-------2-----------------------------
    A:-----3-----------------------3-5-------------------------------
    E:-5-3-------------------------------1---------------------------
    
    chorus:
    
    G:---------------------------------------------------------------
    D:---------------------------------------------------------------
    A:-----------------------2-3--------2-3-5---7-8-7-/3-2---5-4-3---
    E:-1-2-3------3-4-5----------3-----------------------------------
    
    
    G:---------------------------------------------------------------
    D:---------------------------------------------------------------
    A:----------3------------3---------------------------------------
    E:-1-1----------1-1----------1-1---1-1---------------------------…
  • Riff 1
    e|---------------|---------------|
    B|---------------|---------------|
    G|-2-2---2-0-----|-2-2---2-0-----|
    D|--2-2-3----3p2-|--2-2-3----3p2-|
    A|---------------|---------------|
    E|---------------|---------------|
    
    e|---------------|---------------------------|
    B|---------------|---------------------------|
    G|-2-2---2-0-----|-0-------------2---------2-|
    D|--2-2-3----3p2-|--3-2----------------------|
    A|---------------|---------------------------|
    E|---------------|---------------------------|
    
    Riff…
  • Verse
    G |–––––––––––––––––––––––
    D |–––––––––––––––––––––––  (x10)
    A |––––––2–0––––3––3––2––2
    E |–0––0–––––3––––––––––––
    
    
    Riff 1a
    G |–––––––––––––––0–0–0––0–0–0–
    D |–––––––––––2–3––––––––––––––
    A |–3––3––3–3––––––––––––––––––
    E…
  • G              C              G             D        Dsus4     G
    I'm sitting by the window of your thirty-second floor apartment
                     C                  D      Dsus4
    Waiting for your phone calls all to end…
  • Intro:
    G|-----------------------------------------------------------------|
    D|-------------0------------------------------------0h24-4---------|
    A|-2-2-0h2-0h4---4-----2-2-0h2-0-------------0h24-4--------0h24-4--|
    E|-------------------------------2-----002-2-----------------------|
    
    G|--------------------|
    D|--------------0-----|
    A|--2-2-0h2-0h4---4-2-|
    E|-2------------------|
    
    
    Main…
  • Pattern 1:
    
    G|-----------------------------------5----------->
    D|---------------------------0--2--5------------->
    A|3--2--0----------------23---------------------->
    E|---------3--1--------13------------------------>
    
    Pattern…
  • Intro: Am  C  F  D   
    
    Verse 1:
       Am
    To me
                C
    Coming from you,
    F           D          Am     C
    Friend is a four letter word
    F           D              Am
    End is the only part of the word
           C
    That…
  • EADGBe
    
    e
    l5---------------------------l
    l--6-------------------------l
    l----7-6-7-/-9--7-----------l
    l------------------5-7-5-----l
    l------------------------7---l
    l----------------------------l
    E
    
    e
    l5---------------------------l
    l--6-------5-6-/-10-9--5-----l
    l----7-6-7------------3/-----l
    l----------------------------l
    l----------------------------l
    l----------------------------l
    E…
  • Intro/Post Chorus/OUtro 1
    G|-------|-------|-------|-------|
    D|-------|-------|-------|-------|
    A|-------|-------|-------|-------|
    E|-0-0-r-|-0-0-r-|-0-0-r-|-0-0-r-|
       e e h.
    
       Main Bassline (Choruses and Verses)
    G|---------------------|-------------------|
    D|---------------------|-------------------|
    A|-/7-5h7--5h7-5-------|-----------------/-|
    E|---------------7-5-0-|-0-00--3-55-33-0---|…
  • Part A Rhythm
    e-----------------------------|
    B-----------------------------|
    G-5----5---5-55-5----5---5-55-|
    D-5----5---5-55-5----5---5-55-|
    A-3----3---3-33-0----0---0-00-|
    E-----------------------------|
    
    Part B Lead
    e-----------------------|
    B-----------------------|
    G-----------------------|
    D------2-3-5------2-3-2-|
    A-3-333------3-333------|
    E-----------------------|
    
    Part…
  • G                     C            G 
    Standing in the alpha beta parking lot
    
    D
    Watching the sun set
    
    G
    I'll never forget
    
    G                         C            G
    Watching all the reds and oranges slip away
    
    D…
Наверх