Аккорды «Candlemass»

Candlemass
В 1982 году в Швеции появилась группа "Nemesis", основанная басистом Лейфом Эдлингом на пост-трэшевой волне. За два года своего существования коллектив сподобился на выпуск одного EP "The Day Of Retribution", оказавшегося единственным релизом группы. Вскоре, после исчезновения с металлических небосклонов "Nemesis", появился новый проект "Candlemass", инициатором которого был все тот же Лейф Эдлинг. В состав команды также вошли вокалист Йохан Ланквист, гитарист… Читать полностью... В 1982 году в Швеции появилась группа "Nemesis", основанная басистом Лейфом Эдлингом на пост-трэшевой волне. За два года своего существования коллектив сподобился на выпуск одного EP "The Day Of Retribution", оказавшегося единственным релизом группы. Вскоре, после исчезновения с металлических небосклонов "Nemesis", появился новый проект "Candlemass", инициатором которого был все тот же Лейф Эдлинг. В состав команды также вошли вокалист Йохан Ланквист, гитарист Мапп Бьоркман и ударник Мац Экстром. В конце 1985 года "Candlemass" записали демку, заинтересовавшую лейбл "Black Dragon". Заключив с ним контракт группа приступила к сессиям дебютного альбома "Epicus Doomicus Metallicus". Диск утвердил известность "Candlemass" как основоположников стиля "дум". Далее в составе начались перестановки: в группе появились новый ударник Ян Линдс, новый гитарист Ларс Йоханссон и новый вокалист Эдди "Мессия" Марколин, обладавший незаурядным голосом. Хотя дебютный диск был неплохо принят публикой, "Black Dragon" вели в отношении группы странную политику, отказываясь продавать альбом за рубеж. Это сказывалось на популярности группы отнюдь не в лучшую сторону. Поэтому команда решила сменить лейбл, перейдя на "Active". Следующий альбом, "Nightfall", уже более активно распространялся и соответственно более активно раскупался по всему миру. В Штатах его дистрибуцией занялась "Metal Blade". Если второй альбом "Candlemass" был посвящен преимущественно смерти и всему, что с ней связано, то на третьем лонгплее было отдано предпочтение мифологии. Группе до того понравилась тема, что следующий альбом, "Tales Of Creation", получился и вовсе концептуальным. "Candlemass" много гастролировали, однако, с подобной музыкой они не могли добиться мегазвездного статуса, поэтому их концерты проходили в основном в клубах - правда, всегда переполненных. После выхода концертника "Live" Мессия решил покинуть команду, создав собственный проект "Memento Mori". Эта группа тоже была довольно популярна, но до уровня "Candlemass" все-таки не дотягивала. Оставшаяся без вокалиста команда стала подыскивать себе замену Марколина. Ей оказался Томас Викстром. С ним музыканты записали новый альбом "Chapter VI". Диск по инерции неплохо продавался, хотя материал на нем явно не дотягивал до предыдущих релизов. Дела группы покатились под гору и вскоре Эдлинг принял решение о ее роспуске. Лейф быстренько организовал новый металлический проект "Abstrakt Algebra" и выпустил с ним парочку альбомов, однако в 1998 году решил все-таки возродить "Candlemass". В новый состав кроме него вошли вокалист Бьорн Фклодквист, гитарист Майк Эмотт, клавишник Карл Вестхолм и ударник Джейо Перкович. Перед выходом альбома 1999 года "From the 13th Sun" Эмотта сменил Матс Стал. Потом в деятельности группы опять наступил перерыв. Скрыть...
Популярные аккорды Candlemass:
алфавиту | просмотрам | случайно
  • MAIN RIFF
    |---------------------------------------------------------|
    |---------------------------------------------------------|
    |---------------------------------------------------------|
    |---------------------------------------------------------|
    |----2-1-------2-3-2------2-1---1--2-1-3-2----------------|
    |--0-----3-1-0-------1--0-----3---------------------------|
    
    play…
  • Riff A
    |----------------------------------------|
    |----------------------------------------|
    |----------------------------------------| GTR I
    |----------------------------------------|
    |----------------------------------------|…
  • Part one
    
       Figure A
    eb|-----------------|-----------------|-----------------|-----------------|
    Bb|-----------------|-----------------|-----------------|-----------------|
    Gb|---------0-------|---------0-------|---------0-------|---------0-------|
    Db|-----4-------4---|-----4-------4---|-----4-------4---|-----4-------4---|
    Ab|-2---------------|-2---------------|-2---------------|-2---------------|
    Eb|-----------------|-----------------|-----------------|-----------------|…
  • Tuning: Eb(every string down half a step)
    
    Repeat twice
    |-----------|--------------|------------------------------------------|
    |-----------|--------------|------------------------------------------| GTR I
    |-----------|--------------|------------------------------------------|…
  • Tuning: Eb(Eb,Ab,Db,Gb,Bb,Eb) every string down half a step 
    
    RIFF A                                                        
    |------------------------------|
    |------------------------------|
    |------------------------------|
    |------------------------------|
    |-2-2--76--3--65--3----------|
    |-0-0--54--1--43--1----------|…
  • Tune Gtr to Eb
    
    
    Riff A
    |--------------------------------------------------------------------|
    |--------------------------------------------------------------------|
    |-----------------------------------------------------------------3--|Gtr…
  • eb|----------|----------------------------|--------|----------------|
    Bb|----------|----------------------------|--------|----------------|
    Gb|----------|----------------------------|--------|----------------|
    Db|---4-6-4--|--4-----4-4-6-4-----4-9-7-4-|-4-6-7--|-7--------------|
    Ab|-4-2-4-2--|--2-5-4-4-2-4-2-5-4-2-7-5-2-|-2-4-5--|-5-7-7-9--------|
    Eb|-2--------|----3-2-2-------3-2---------|--------|---5-5-7--------|
    
    
    eb|----------|---------------------------|--------------------------|
    Bb|----------|---------------------------|--------------------------|
    Gb|----------|---------------------------|--------------------------|
    Db|-------4--|-4-----4-6-4-----4-9-----4-|---4-6-4-4-----4-4-6------|
    Ab|-9-4-4-2--|-2-4-4-2-4-2-5-4-2-7-4-4-2-|-4-2-4-2-2-5-4-4-2-4------|
    Eb|-7-2-2----|---2-2-------3-2-----2-2---|-2---------3-2-2----------|
    
    
    eb|---------------|-------------------------------------------------|
    Bb|---------------|-------------------------------------------------|
    Gb|---------------|-------------------------------------------------|
    Db|-4-----4-9-7-4-|-4-6-7-7-------------4-----4-6-4-----4-9-----4---|
    Ab|-2-5-4-2-7-5-2-|-2-4-5-5-7-7-9-9-4-4-2-4-4-2-4-2-5-4-2-7-4-4-2---|
    Eb|---3-2---------|---------5-5-7-7-2-2---2-2-------3-2-----2-2-----|
    
    
    
    SOLO
    eb|-----------------------------------------------------------------|
    Bb|----------------------------------------16-15H16P15--------------|
    Gb|-~~------------------------~~-----------------------17-16-17-----|
    Db|-9---89-1112-1214-1417-16-------16---------------------------|
    Ab|------------------------------14-16------------------------------|
    Eb|-----------------------------------------------------------------|…
  • Tuning: Eb(every string down half a step)
    
     Intro 1:(play twice)
    |-------------------------------------------------|
    |-------------------------------------------------| GTR I and GTR II
    |-------------------------------------------------|
    |-------------------------------------------------|
    |----------------------------/5--4--2--0--2--4--5-|
    |--2--1--2--4--5--4--2--1--2----------------------|…
  • Tune Gtr to Eb Ѕ step down
    
    
    
    Riff A
    |-------------------------------------|
    |-------------------------------------|
    |-------------------------------------|Gtr 
    |-------------------------------------| I
    |2-2-2-2--3-2--2-2-2-2-5-7-8----------|
    |0-0-0-0--1-0--0-0-0-0-3-5-6----------|
    
    Riff…
  • eb|---------------|-------------------|
    Bb|---------------|-------------------|
    Gb|---------------|-------------------|
    Db|--2-2-5-9-8-5--|--2-2-5-9-8--3-3---| x2     GUITAR 1
    Ab|---------------|-------------------|
    Eb|---------------|-------------------|
    
    
    eb|---------------|-------------------|
    Bb|---------------|-------------------|
    Gb|---------------|-------------------|
    Db|---------------|-------------------|…
  • tuning ( Eb,Ab,Db,Gb,Bb,Eb ) every string down half a step 
    
     Riff A
    |----------------------------|--------------------------|
    |----------------------------|--------------------------|
    |----------------------------|--------------------------|
    |-----------------5----------|-------------5------------|…
  • x2                                    x3
        |------------------------|                   |---------------------------|
     e|----------------------------|---------------------------------------------|
     B|----------------------------|---------------------------------------------|…
  • Tuning: Eb, Bb, Gb, Db, Ab, Eb
    
     Beginning
    |-------------------|--------------------------------------------------|
    |-------------------|--------------------------------------------------|
    |-9-----------------|--------------------------------------------------|
    |-7--9--5--4--2-----|-2--2------------------------2--2-----------------|
    |----7--3--2--0-----|-0--0--5----3--3--2----2--3--0--0--5----3--3--2---|
    |-------------------|-------3----1--1--0----0--1--------3----1--1--0---|
    
    *play…
  • Riff:
    e-------------------------------------------------------|
    B-------------------------------------------------------|
    G-------------------------------------------------------|
    D-------------------------------------------------------|
    A----7-9--9----6-7-6----7-9--9----12-12-11--------------|
    E----5-7--7----4-5-4----5-7--7----10-10-9---------------|…
Наверх