Аккорды Carlos Gardel - Por una Cabeza

Добавлено: @romashka
Дата добавления: 13 Июня 2018г.
Рейтинг:
0.0
Просмотров: 49
Транспонировать - +
e|---------------------------5------7-8----7--------------------|
B|------------5----------5-7---8--------10---8-10-7-8-7---------|
G|----4-5-6-7---7----6-7--------------------------------7-------|
D|--------------------------------------------------------10----|
A|--------------------------------------------------------------|
E|--------------------------------------------------------------|

e|----8-7-10-8------------7------------------7---------------------|
B|-------------10----10-9---10-7----7-8-9-10---10-7-----7----------|
G|--------------------------------------------------7-9---9-5-4----|
D|-----------------------------------------------------------------|
A|-----------------------------------------------------------------|
E|-----------------------------------------------------------------|

e|--------------------------5--------5-7---5---5-7-5---12---|
B|-----------5----------5-7---8----8-----8---8-------8------|
G|---4-5-6-7---7----6-7-------------------------------------|
D|----------------------------------------------------------|
A|----------------------------------------------------------|
E|----------------------------------------------------------|

e|----------------------------------------5-7---5--------5-------|
B|---10-8-----------------8------8------8-----8------7-8---7-8---|
G|--------9-------------8---10-8---7-----------------------------|
D|----------10-9-7-9-10------------------------------------------|
A|---------------------------------------------------------------|
E|---------------------------------------------------------------|

e|-------------|
B|-------------|
G|-------------|
D|-----5-------|
A|---5---5-----|
E|---------3---|

e|--------8-10-10---------------------------------------------------------------------|
B|--11-11---------10---8-8-10-11-11-------------8-8---8-10-11-8-10---8—10-11-8-11-10--|
G|----------------------------------10---8-8-10---------------------------------------|
D|------------------------------------------------------------------------------------|
A|------------------------------------------------------------------------------------|
E|------------------------------------------------------------------------------------|

e|---------8-10-10--------------------------------------------------------------------|
B|---11-11---------10----8-8-10-11-11-------------8-8----8-10-11-8-10----7—8-10-7-8---|
G|------------------------------------10---8-8-10-------------------------------------|
D|------------------------------------------------------------------------------------|
A|------------------------------------------------------------------------------------|
E|------------------------------------------------------------------------------------|

e|------------------------------------7--------------------------------------------|
B|---8-7--------------------------7-8---7-10-8-----------------------------7-------|
G|-------9-7-----9-7----------7-9--------------7---4-5-4-5-7-5----9-7-9—-8---9-5---|
D|-----------9-------9-------------------------------------------------------------|
A|---------------------10----------------------------------------------------------|
E|------------------------10-------------------------------------------------------|

e|------------------------------------------------7----10-9-10-12-10------------|
B|-------------------7-5---------------------------------------------12---------|
G|---4-7-5---4-5-6-------5-4-7-6-5-4-7----4-5-6-7-----------------------12------|
D|---------7---------------------------------------------------------------12---|
A|------------------------------------------------------------------------------|
E|------------------------------------------------------------------------------|

e|----------------------------13-12-9-10-12----9-10-12---12-14-15------------------|
B|------------------------------------------13--------------------13-16-15-13------|
G|-------------------8-9-10---------------------------------------------------16---|
D|---9-10-11-12---12---------------------------------------------------------------|
A|---------------------------------------------------------------------------------|
E|---------------------------------------------------------------------------------|

e|---15-17-18-19-------17-14-15---|
B|---------------15-17------------|
G|--------------------------------|
D|--------------------------------|
A|--------------------------------|
E|--------------------------------|

e|-------------|
B|-------------|
G|-------------|
D|-----5-------|
A|---5---5-----|
E|---------3---|

e|--------------------17-17-15-13-15--------------------13-13-11-10-11------------------|
B|----8-8-10-11-11----------------------8-8-10-11--------------------------------8------|
G|------------------------------------------------10----------------------8-8-10---7----|
D|--------------------------------------------------------------------------------------|
A|--------------------------------------------------------------------------------------|
E|--------------------------------------------------------------------------------------|

e|---------------------------------|
B|---7-7---------------------------|
G|-------10-8-10s11-10s11s10-10----|
D|---------------------------------|
A|---------------------------------|
E|---------------------------------|

e|------------------------s17-17-15-13-15------------------------13-13-11-10-11---|
B|----------------8-10------------------------------------------------------------|
G|---------7-8-10--------------------------------------7-8-10---------------------|
D|----8-10--------------------------------------7-8-10----------------------------|
A|-------------------------------------------10-----------------------------------|
E|--------------------------------------------------------------------------------|

e|---11---------8-10----10-10-8----9s12—--10---10s15---|
B|------8-10-11-----------------11---------------------|
G|-----------------------------------------------------|
D|-----------------------------------------------------|
A|-----------------------------------------------------|
E|-----------------------------------------------------|

s = пальцами проводить от указанного лада до следующего указанного лада 
comments powered by Disqus
Наверх