Аккорды Carole King - Will You Love Me Tomorrow?

Добавлено: @romashka
Дата добавления: 10 Февраля 2024г.
Рейтинг:
0.0
Просмотров: 100
Gtr I (E A D G) - 'Charles "Charlie" Larkey - Bass'

  [Intro]                    [1st Verse]
  Q=80
  4/4
   Gtr I
   Wx3          W           H.      +E  E   H.      +E  E
G|------------|----------||---------------|----------------|
D|------------|----------||---------------|-------------3--|
A|------------|----------||-3-------(3)-3-|-3-------(3)----|
E|------------|-3--------||---------------|----------------|


   W          H.      Q    H.      +E  E   H.      +E  E
G|----------|------------|---------------|---------------|
D|-3--------|------------|---------------|---------------|
A|----------|---------2--|-3-------(3)-3-|-3-------(3)-3-|
E|----------|-3----------|---------------|---------------|


   H.      +E  E   H    Q  Q    H.      +E  E   H    Q  Q    H.      +E  E
G|---------------|------------|---------------|---------4--|-2-------(2)---|
D|---------------|---------3--|-2-------(2)-2-|-2----2-----|---------------|
A|---------------|------------|---------------|------------|-------------0-|
E|-3-------(3)-3-|-3----3-----|---------------|------------|---------------|


   H    H      H.      Q    Q  +E  E Q  Q    Q  +E  E H
G|-----------|------------|----------------|---------------|
D|------5----|-3-------3--|-5--(5)---------|---------------|
A|-0---------|------------|----------------|-3--(3)-3-3----|
E|-----------|------------|--------3-3--3--|---------------|


              [2nd Verse]
   W           H.      +E  E   H.      E E   H.      Q
G|----------||---------------|-------------|------------|
D|----------||---------------|-----------3-|-3-------3--|
A|----------||-3-------(3)-3-|-3-------3---|------------|
E|-3--------||---------------|-------------|------------|


   H    Q  +E  E   H.      +E  E   W          Q  +E  E Q  +E  E
G|---------------|---------------|----------|-------------------|
D|-3-------------|---------------|----------|-------------------|
A|-------------2-|-3-------(3)-3-|-3--------|-------------------|
E|------3--(3)---|---------------|----------|-3--(3)-3-3--(3)-3-|


   Q  +E  E Q  E E   H.      +E  E   H    Q  Q    H.      +E  S S
G|-----------------|---------------|---------4--|-2-------(2)------|
D|-----------------|-2-------(2)-2-|-2----2-----|------------------|
A|-------------2-3-|---------------|------------|-------------3-2--|
E|-3--(3)-3-3------|---------------|------------|------------------|


   H    H      H.      Q    H    Q  Q    Q  +E  E H      Q  +E  E Q  Q
G|-----------|------------|------------|---------------|----------------||
D|-----------|-3-------3--|-5----------|---------------|----------------||
A|-0---------|------------|---------2--|-3--(3)-3-3----|-3--(3)-3-3--3--||
E|------3----|------------|------3-----|---------------|----------------||


  [Bridge]
   Q  +E  E Q  +E  E   Q  +E  E Q  E E   Q  +E  E Q  +E  E   Q  +E  E Q  +E  E
G|-------------------|-------------5---|-------------------|-------------------|
D|-3--(3)-3-3--(3)-3-|-3--(3)-3-3----3-|-2--(2)-2-2--(2)-2-|-2--(2)-2-2--(2)-2-|
A|-------------------|-----------------|-------------------|-------------------|
E|-------------------|-----------------|-------------------|-------------------|


   Q  +E  E Q  +E  E   Q  +E  E Q  +E  E   W          +H     +E  E E E
G|-------------------|-------------------|----------|------------------|
D|-3--(3)-3-3--(3)-3-|-5--(5)-5-5--(5)-5-|----------|------------5---5-|
A|-------------------|-------------------|-3--------|-(3)----(3)---3---|
E|-------------------|-------------------|----------|------------------|


   Q  +E  E Q  +E  E   Q  +E  E Q  E E   Q  +E  E Q  +E  E   Q  +E  E Q  Q
G|-------------------|-------------5---|-------------------|----------------|
D|-3--(3)-3-3--(3)-3-|-3--(3)-3-3----3-|-2--(2)-2-2--(2)-2-|-2--(2)-2-2-----|
A|-------------------|-----------------|-------------------|-------------2--|
E|-------------------|-----------------|-------------------|----------------|


   W          W          Q  +E  E Q  Q    e E Q  H
G|----------|----------|----------------|-------------||
D|----------|----------|----------------|-------------||
A|-0--------|-5--------|----------------|-------------||
E|----------|----------|-3--(3)-3-3--3--|-3-----------||


  [3rd Verse]
   H.      +E  E   H.      E E   H.      +E  E   H    Q  Q
G|---------------|-------------|---------------|------------|
D|---------------|-----------3-|-3-------(3)-3-|-3----3-----|
A|-3-------(3)-3-|-3-------3---|---------------|------------|
E|---------------|-------------|---------------|---------3--|


                                                         |-3-|
   H.      +E  E   W          Q  +E  E Q  +E  E   e E Q  Q Q Q
G|---------------|----------|-------------------|---------------|
D|---------------|----------|-------------------|--------5-4-3--|
A|-3-------(3)-3-|-3--------|-------------------|---------------|
E|---------------|----------|-3--(3)-3-3--(3)-3-|-3-------------|


   H.      +E  E   Q  +E  E Q  Q    Q  +E  E Q  +E  E   Q  +E  E Q  +E  E
G|---------------|-------------4--|-2--(2)-2-2--(2)-2-|-2--(2)-2----------|
D|-2-------(2)-2-|-2--(2)-2-2-----|-------------------|----------5--(5)-5-|
A|---------------|----------------|-------------------|-------------------|
E|---------------|----------------|-------------------|-------------------|


   H.      Q    H    Q  Q    Q  +E  E H      Q  +E  E E E E E
G|------------|------------|---------------|--------------5---||
D|-3-------3--|-5----------|---------------|------------5---2-||
A|------------|---------2--|-3--(3)-3-3----|-3--(3)-3-3-------||
E|------------|------3-----|---------------|------------------||


  [Outro]
   H    Q  +E  E   Q  +E  E Q  Q    Q  +E  E Q  +E  E   Q  +E  E +E  E E E
G|---------------|----------------|-------------------|--------------------|
D|-3----3--(3)-3-|-5--(5)-5-5--5--|-------------------|--------------5---2-|
A|---------------|----------------|-3--(3)-3-3--(3)-3-|-3--(3)-3-(3)---3---|
E|---------------|----------------|-------------------|--------------------|


   Q  +E  E Q  +E  E   Q  +E  E Q  +E  E
G|-------------------|-------------------|
D|-3--(3)-3-3--(3)-3-|-5--(5)-5-5--(5)-5-|
A|-------------------|-------------------|
E|-------------------|-------------------|


   W          E. S +Q   E. S +E  E   W
G|----------|----4-(4)-------------|------|
D|----------|----------------------|------|
A|-3--------|-3---------3--2-(2)---|------|
E|----------|--------------------3-|-1----|


   H.      Q    Q  +E  E Q  +E  E
G|------------|-------------------|
D|------------|-------------------|
A|---------2--|-3--(3)-3-3--(3)-3-|
E|-3----------|-------------------|


   Q  +E  E +E  E E E   H.      Q    H    H
G|--------------------|------------|-----------*|
D|------------------2-|-3-------3--|-5---------*|
A|-3--(3)-3-(3)---3---|------------|-----------*|
E|--------------3-----|------------|------3----*|

[Lyrics]
Tonight you're mine completely
You give your love so sweetly
Tonight the light of love is in your eyes
But will you love me tomorrow

Is this a lasting treasure
Or just a moment's pleasure
Can I believe the magic of your sighs
Will you still love me tomorrow

Tonight with words unspoken
You say that I'm the only one
But will my heart be broken
When the night meets the morning sun

I'd like to know that your love
Is love I can be sure of
So tell me now and I won't ask again
Will you still love me tomorrow
Will you still love me tomorrow
Will you still love me tomorrow
Will you still love me tomorrow

************************************
Duration Legend

W - whole; H - half; Q - quarter; E - 8th;  
+ - note tied to previous; . - note dotted; 
Duration letters will always appear directly above the note/fret number it represents the
duration for.  Duration letters with no fret number below them represent rests.  

| (n)  note tied to previous

************************************  
Музыка - это самый сильный вид магии (Мэнсон)
Мы стремимся к созданию контента, соответствующего всем нормам законодательства и уважающего интеллектуальную собственность. Мы также придаем большое значение тому, чтобы не задеть никого и не оскорбить чьи-либо чувства. Если у вас есть вопросы или претензии по размещенному материалу, пожалуйста, сообщите нам об этом.
Шрифт
-
0
+
Прокрутка
-
0
+
Стоп
Наверх