Аккорды «Cauterize»

Cauterize
История канадской группы «Cauterize» берет свое начало с группы «T.O.E.», которую сформировала троица школьных друзей Jesse Smith (вокал, гитара), Bone (бас) и Matt Worobec (барабаны). Свое первое выступление музыканты дали в «Eclipse», в Ошаве. Вскоре, в ряды группы влился гитарист Ryan Van Asten, который после записи первых демо, покинул группу. Новым гитаристом группы стал, так же школьный друг музыкантов, Josh Slater, который прежде играл на барабанах в группе «One For The Road». Спустя некоторое… Читать полностью... История канадской группы «Cauterize» берет свое начало с группы «T.O.E.», которую сформировала троица школьных друзей Jesse Smith (вокал, гитара), Bone (бас) и Matt Worobec (барабаны). Свое первое выступление музыканты дали в «Eclipse», в Ошаве. Вскоре, в ряды группы влился гитарист Ryan Van Asten, который после записи первых демо, покинул группу. Новым гитаристом группы стал, так же школьный друг музыкантов, Josh Slater, который прежде играл на барабанах в группе «One For The Road». Спустя некоторое время, музыканты решили, что пришло время записывать первый лонгплэй, получивший название «Take Off Eh!» и выпущенный в 1999 году. Нарастающий интерес к группе «Cauterize» повлек за собой очередной поход в студию, результатом чего стал второй альбом «The Moment I Cauterize» записанный при участии продюсера Murray Daigle и выпущенный в 2001 году. Подписав контракт с звукозаписывающей компанией «Wind-Up Entertainment», через которую выпускают свои альбомы «Evanescence», «Drowning Pool», «12 Stones» и многие другие команды, музыканты сменив название группы на «Cauterize» выпустили альбом «So Far From Real» в августе 2003 года и вскоре отправились в тур с «Evanescence». К концу года, команда «Cauterize» продолжила гастрольную деятельность вместе с «Hoobastank» и «Three Days Grace», продолжая тур в поддержку альбома, продюсированием которого занимались Don Gilmore (работал над песнями Something Beautiful и Killing Me) и Murray Daigle (продюсировал все остальные песни альбома). Скрыть...
Популярные аккорды Cauterize:
алфавиту | просмотрам | случайно
  • Intro
    e]----------------------------------------------------------------------------------
    b]----------------------------------------------------------------------------------
    g]----------------------------------------------------------------------------------
    d]-3333--5555--7777--10-10-10-10----10-10-10-10-10-10-10-10-10-10-10-10-10-10-------
    a]-1111--3333--5555--8--8--8--8-X4--8--8--8--8--8--8--8--8--8--8--8--8--8--8-10-12--
    e]---------------------------------------------------------------------------8--10--…
  • Tuning: DADGBE
    
    e|--------------------------------------|-------4---------------4----------|
    B|--------------------------------------|---------------4---------------4--|
    G|--65/6----65/6----65/6----65/6----|-6-5-6---6-5-6---6-5-6---6-5-6----|
    D|--x-x-x----x-x-x----x-x-x----x-x-x----|----------------------------------|
    A|--43/4----43/4----43/4----43/4----|----------------------------------|
    D|--------------------------------------|----------------------------------|…
  • Tuning: DADGBe
    
    e|-------|------------------------|------------------------|
    B|-------|------------------------|------------------------|
    G|---8---|---8--------------------|---8--------------------|
    D|---x---|---8----8----10----6----|---8----8----10----6----|
    A|---6---|---6----8----10----6----|---6----8----10----6----|
    D|-------|--------8----10----6----|--------8----10----6----|
    
    
    (Guitar…
  • Tuning - Standard
    
    e---------------------------------------------|
    b---------------------------------------------|
    g----5-5-5-----------8-8-8--------------------|
    d----5-5-5---6-6-6---8-8-8---8-8--6-6---8-8---|
    a----3-3-3---6-6-6---6-6-6---8-8--6-6---8-8---|
    e------------4-4-4-----------6-6--4-4---6-6---|
    
    this…
  • Tuning: DADGBe
    
    e|-----|-----------------|-----------------|-----------------------|
    B|-----|-----------------|----8---6p5------|-----------------------|
    G|-----|--5----7---------|--5---5-----7p5--|-----------------------|
    D|--3--|--5----7----3----|-----------------|--5----3-----5----3----|
    A|--3--|--3----5----3----|-----------------|--5----3-----5----3----|
    D|--3--|------------3----|-----------------|--5----3-----5----3----|…
Наверх