Аккорды Cheap Trick - Get Ready

Добавлено: @romashka
Дата добавления: 05 Января 2024г.
Рейтинг:
0.0
Просмотров: 121
[Intro]

E  D  A  G

E  D  A  G

Better get ready (hahaha)

[Verse]

E      
Hey, hey
D
Hey, hey
         A                   G
I got a mind of my own, don’t need your advice 
E
Hey, hey
D
Hey, hey
          A                      G
I got news for you baby, don‘t need to think twice 

[Verse]

E                        D
It sounds easy, it was harder than hell
    A                G
For me to talk to you
E
Hey, hey
D
Hey, hey
            A            G         G
My minds been around for fifteen rounds

[Pre-Chorus]

A                        D
Swear, I didn’t know you felt like that
       E                   
Never seen that side of you

e|---------------------------------------------------------------------------|
B|---------------------------------------------------------------------------|
G|---------------------------------------------------------------------------|
D|-2-1----2-1----------------------------------------------------------------|
A|-----2------2--------------------------------------------------------------|
E|---------------------------------------------------------------------------|

A                 D
Didn’t Know you‘d react like that 
          E
But I’ll try

[Chorus]

D     A        E
Get ready for my love, baby
D     A       E
Get ready for me
D     A       E
Get ready for my love, baby
D     A       E
Get ready for me
N.C.
Better get ready

[Verse]

E
Hey, hey
D
Hey, hey
          A                   G
You can’t take it with you no matter how hard you try

E
Hey, hey
D
Hey, hey
          A                         G
I’ve had these eyes on you from the very first time 

[Verse]

E                 D
Ain’t been home since I don’t know when
            A                  G
But your taste ain’t quite the same
            A                  G
In the eye of the storm on the firing line

[Pre-Chorus]

A                        D
Swear, I didn’t know you felt like that
       E
Never seen that side of you

e|---------------------------------------------------------------------------|
B|---------------------------------------------------------------------------|
G|---------------------------------------------------------------------------|
D|-2-1----2-1----------------------------------------------------------------|
A|-----2------2--------------------------------------------------------------|
E|---------------------------------------------------------------------------|

A                 D
Didn’t Know you‘d react like that 
          E
But I’ll try

[Chorus]

D     A        E
Get ready for my love, baby
D     A       E
Get ready for me
D     A       E
Get ready for my love, baby
D     A       E
Get ready for me		
Музыка глушит печаль (Шекспир)
Мы стремимся к созданию контента, соответствующего всем нормам законодательства и уважающего интеллектуальную собственность. Мы также придаем большое значение тому, чтобы не задеть никого и не оскорбить чьи-либо чувства. Если у вас есть вопросы или претензии по размещенному материалу, пожалуйста, сообщите нам об этом на указанный адрес электронной почты: [email protected].
Шрифт
-
0
+
Прокрутка
-
0
+
Стоп
Наверх