Аккорды Chic - Savoir Faire

Добавлено: @romashka
Дата добавления: 17 Сентября 2018г.
Рейтинг:
0.0
Просмотров: 25
Транспонировать - +
Ring on open E. Then ...            
                                           
G------------------------------------------------------|
D---------4-4------------------------------------------|
A------4------4----------4-4----2--2*---2-2-----2-0----|
E--2------------2---4-4-------2-------2------2------4-0|

                            * - ring out here on the fourth go-round. then start the section below

                                                   Ending (back to A section)
G-----4-----------------------------------------||--------|
D-3h4---4-3-2-------1---------------------------||--------|
A--------------------------2-2---2------2-2-----||--------|
E------------------------------2---2--2-----2---||---2--0-|


Repeat these two parts back and forth as needed.
comments powered by Disqus
Наверх