Аккорды Чиж & Co - Еду, еду

Добавлено: @romashka
Дата добавления: 16 Декабря 2021г.
Рейтинг:
0.0
Просмотров: 41
Транспонировать - +
Вступление:
                                          п v
E|----1-1-1-1---0-0-0-0---0-0-0-0---0-0-0-0-0--|
B|----3-3-3-3---3-3-3-3---3-3-3-3---3-3-3-3-3--|
G|----2-2-2-2---2-2-2-2---2-2-2-2---3-3-3-3-3--|
D|--0------------------------------------------|  x2
A|------------1---------2---------3------------|
E|---------------------------------------------|


Проигрыш (здесь и далее дана только основная канва -
 нужно будет добавлять удар, щипок и т.п., чтобы заполнять паузы)
                                       п  v  v
E|----------10-----8--6-|-5--3--0-|-1--1--0--1-|-5---3---1-0-1--|
B|----------------------|-5--5--1-|-3--3--3--3-|-----3---2-2-3--|
G|--9 ͡ 10-------7------|-------2-|-2--2--2--2-|-----3---0-0-2--|
D|--0-------------------|-------3-|-3--3--3--3-|---------2---0--|
A|-----------------0----|-3-------|------------|----------------|
E|--------------------3-|---------|------------|---3------------|


                                       п  v  v               Em  A7
E|----------10-----8--6-|-5--3--0-|-1--1--0--1-|-5---3--5--3--0--0--|
B|----------------------|-5--5--1-|-3--3--3--3-|-----3--3--3--0--2--|
G|--9 ͡ 10------7-------|-------2-|-2--2--2--2-|-----3--------0--0--|
D|--0-------------------|-------3-|-3--3--3--3-|--------------2--2--|
A|-----------------0----|-3-------|------------|--------------2-----|
E|--------------------3-|---------|------------|---3----------0-----|


      Dm                       Gm6
То ли рядом с шофёром, то ли в тесном купе
    Bbmaj7/E            A7sus4    A7
Я мотаюсь по жизни по великой стране.
    Dm            Gm6
Позади километры оборванных струн,
     Bbmaj7/E     A7sus4     A7
Впереди миражи неопознанных лун.


Dm   Dm/F Gm   C   Fmaj7
Еду, еду, еду, еду я.
Bbmaj7/E    A7sus4 A7   Dm
Реки, степи, горы  и  поля.
Dm   Dm/F  Gm      C     Fmaj7
Видел я вчера в твоих глазах
Bbmaj7/E        Gm          E7  A7sus4 A7
Шар воздушный, глобус в небесах.


    Dm                    Gm6
Посиделки с друзьями, мимолётный роман.
     Bbmaj7/E        A7sus4   A7
Не выбрасывай, мама, мой чемодан.
    Dm              Gm6
Посижу я немного и снова пойду.
       Bbmaj7/E       A7sus4    A7
Видно, что-то ищу и никак не найду.


Dm   Dm/F Gm   C   Fmaj7
Еду, еду, еду, еду я.
Bbmaj7/E    A7sus4 A7   Dm
Реки, степи, горы  и  поля.
Dm     Dm/F   Gm      C     Fmaj7
Шар воздушный мне подскажет путь.
Bbmaj7/E    Gm          E7  A7sus4 A7
Я к тебе приду когда-нибудь.


      Dm        Gm6      Dm Dm(b6) Dm  A7sus  A7
E|----(5)-------(3)-------5---6---(5)--(5)---(5)--|
B|----(6)-------(5)-------6---6---(6)--(5)---(5)--|
G|----(7)-------(3)-------7---7---(7)--(7)---(6)--|
D|----(7)-------(5)-------7---7---(7)--(5)---(5)--|
A|----(5)-------(5)-------5---5---(5)--(7)---(7)--|
E|----(5)-------(3)-------5---5---(5)--(5)---(5)--|


Dm   Gm   Bbmaj7/E   A7sus4   A7
                                       п  v  v
E|----------10-----8--6-|-5--3--0-|-1--1--0--1-|-5---3---1-0-1--|
B|----------------------|-5--5--1-|-3--3--3--3-|-----3---2-2-3--|
G|--9 ͡ 10-------7------|-------2-|-2--2--2--2-|-----3---0-0-2--|
D|--0-------------------|-------3-|-3--3--3--3-|---------2---0--|
A|-----------------0----|-3-------|------------|----------------|
E|--------------------3-|---------|------------|---3------------|


                                       п  v  v               Em  A7
E|----------10-----8--6-|-5--3--0-|-1--1--0--1-|-5---3--5--3--0--0--|
B|----------------------|-5--5--1-|-3--3--3--3-|-----3--3--3--0--2--|
G|--9 ͡ 10------7-------|-------2-|-2--2--2--2-|-----3--------0--0--|
D|--0-------------------|-------3-|-3--3--3--3-|--------------2--2--|
A|-----------------0----|-3-------|------------|--------------2-----|
E|--------------------3-|---------|------------|---3----------0-----|


     Dm                      Gm6
Наплевать на погоду, коль исправен мотор.
    Bbmaj7/E            A7sus4    A7
Оглянуться назад - подписать приговор.
      Dm               Gm6
На твоих золотых время не истекло,
    Bbmaj7/E                 A7sus4  A7
И я пялюсь сквозь ночь в лобовое стекло.


Dm   Dm/F Gm   C   Fmaj7
Еду, еду, еду, еду я.
Bbmaj7/E    A7sus4 A7   Dm
Реки, степи, горы  и  поля.
Dm     Dm/F  Gm    C  Fmaj7
Дай мне на дорогу сигарет,
Bbmaj7/E   Gm         A7sus4 A7
Чтобы сочинить еще куплет.


Dm   Dm/F Gm   C   Fmaj7
Еду, еду, еду, еду я.
Bbmaj7/E    A7sus4 A7   Dm
Реки, степи, горы  и  поля.
Dm     Dm/F   Gm      C     Fmaj7
Звёзды в небе мне подскажут путь.
Bbmaj7/E    Gm          E7  A7sus4 A7
Я к тебе приду когда-нибудь.


Завершение:

  Bbmaj7/E   Bm11(b5)     C9    Fmaj7/C
E|----(0)-------(0)-------(0)-----0-0-0-0-0-0-0-0--|
B|----(3)-------(3)-------(3)-----1-1-0-1-1-1-0-0--|
G|----(2)-------(2)-------(3)-----2-2-0-0-2-2-0-0--|
D|----(3)-------(3)-------(2)-----3-3-3-3-3-3-3-0--|
A|----(1)-------(2)-------(3)-----3-3-3-3-3-3-3-0--|
E|-------------------------------------------------|


  Bbmaj7/E   Bm11(b5)
E|---(0)--------(0)-------5--3--5--|
B|---(3)--------(3)-------5--3--3--|
G|---(2)--------(2)-------5--3--2--|
D|---(3)--------(3)-------5--2--0--|
A|---(1)--------(2)----------------|
E|---------------------------------|

* п = downstroke; v = upstroke

Bbmaj7/E:

E|--0--|
B|--3--|
G|--2--|
D|--3--|
A|--1--|
E|--0--|
Наверх