Аккорды «The Constellations»

The Constellations
The Constellations - американская хип-хоп/рок группа, образованная в Атланте, штат Джорджия. Их песня “We’re Here To Save The Day” была показана на канале NBC в премьерном сезоне сериала "Chuck" 20 сентября 2010, а также была включена в саундтрек к видео игре NBA 2011. The Constellations - американская хип-хоп/рок группа, образованная в Атланте, штат Джорджия. Их песня “We’re Here To Save The Day” была показана на канале NBC в премьерном сезоне сериала "Chuck" 20 сентября 2010, а также была включена в саундтрек к видео игре NBA 2011. Скрыть...
Популярные аккорды The Constellations:
алфавиту | просмотрам | случайно
  • Intro
    e|---------------------------------------------------------|
    B|---------------------------------------------------------|
    G|---------------------------------------------------------|
    D|-999-111111-131313-111111-141414-131313-1111111111111111-|
    A|-xxx--x-x-x--x-x-x--x-x-x--x-x-x--x-x-x--x-x-x-x-x-x-x-x-|
    E|-777--9-9-9-111111--9-9-9-121212-111111--9-9-9-9-9-9-9-9-|
    
    e|----------------------------------------------------|
    B|----------------------------------------------------|
    G|-999-111111-131313-141414-161616161616-141414141414-|
    D|-xxx--x-x-x--x-x-x--x-x-x--x-x-x-x-x-x--x-x-x-x-x-x-|
    A|-777--9-9-9-111111-121212-141414141414-121212121212-|
    E|----------------------------------------------------|
    
    e|------------------------------------------------|
    B|------------------------------------------------|
    G|-999-111111-999-131313-141414-131313-1111111111-|
    D|-xxx--x-x-x-xxx--x-x-x--x-x-x--x-x-x--x-x-x-x-x-|
    A|-777--9-9-9-777-111111-121212-111111--9-9-9-9-9-|
    E|------------------------------------------------|
    
    e|--------------------------------------------|
    B|--------------------------------------------|
    G|-999-111111-131313-141414-131313-111111-999-|
    D|-xxx--x-x-x--x-x-x--x-x-x--x-x-x--x-x-x-xxx-|
    A|-777--9-9-9-111111-121212-111111--9-9-9-777-|
    E|--------------------------------------------|
    
    
    Verse
    e|------------------------------------------------------------------|
    B|------------------------------------------------------------------|
    G|-----------22-2-----------22-2-----------22-2-----------777777777-|
    D|-44-4-44-4-22-2-44-4-44-4-22-2-44-4-44-4-22-2-44-4-44-4-777777777-|
    A|-44-4-44-4-00-0-44-4-44-4-00-0-44-4-44-4-00-0-44-4-44-4-555555555-|
    E|-22-2-22-2------22-2-22-2------22-2-22-2------22-2-22-2-----------|
    pm…
  • Intro
    e|-------------------------------------------------------------|
    B|-------------------------------------------------------------|
    G|-------------------------------------------------------------|
    D|-6----6----6----6----6----6----4----4----4----7----7----7----|
    A|---77---77---77---00---00---00---00---00---00---00---00---00-|
    E|-------------------------------------------------------------|
    
    e|-------------------------------------------------------------|
    B|-------------------------------------------------------------|
    G|-------------------------------------------------------------|
    D|-6----6----6----6----6----6----9----9----9----7----7----7----|
    A|---77---77---77---00---00---00---00---00---00---00---00---00-|
    E|-------------------------------------------------------------|
    
    e|------------------------------------------------------------|
    B|------------------------------------------------------------|
    G|------------------------------------------------------------|
    D|-6----6----6----6----6----6----4----4----4----7----7----7h9-|
    A|---77---77---77---00---00---00---00---00---00---00---00-----|
    E|------------------------------------------------------------|
    
    e|-------------------------------------------------|
    B|-------------------------------------------------|
    G|-------------------------------------------------|
    D|-6----6----6----9----9----9----7----7----7----6~-|
    A|---77---77---77---00---00---00---00---00---00----|
    E|-------------------------------------------------|
    
    
    Chorus
    e|----------------------------------------|
    B|----------------------------------------|
    G|-9-9-9-x9------------8-8-8-x8-----------|
    D|-9-9-9-x9--66666666--8-8-8-x8--99999999-|
    A|-7-7-7-x7--66666666--6-6-6-x6--99999999-|
    E|-----------44444444------------77777777-|
    
    e|-------------------------------------|
    B|-------------------------------------|
    G|-9-9-9-x9------------8-8-8--11111111-|
    D|-9-9-9-x9--66666666--8-8-8---x-x-x-x-|
    A|-7-7-7-x7--66666666--6-6-6---9-9-9-9-|
    E|-----------44444444------------------|
    
    e|------------------------------------------------|
    B|------------------------------------------------|
    G|-9-9-9-x9--1111111111--13-13-13-x13--1111111111-|
    D|-9-9-9-x9--1111111111--13-13-13-x13--1111111111-|
    A|-7-7-7-x7---9-9-9-9-9--11-11-11-x11---9-9-9-9-9-|
    E|------------------------------------------------|
    
    e|----------------------------------------|
    B|----------------------------------------|
    G|-9-9-9-x9------------8-8-8-x8-----------|
    D|-9-9-9-x9--66666666--8-8-8-x8--99999999-|
    A|-7-7-7-x7--66666666--6-6-6-x6--99999999-|
    E|-----------44444444------------77777777-|
    
    
    Verse
    e|-------------------------------------------------------------|
    B|-------------------------------------------------------------|
    G|-9999999999999999------------------6666666666-777777777/6666-|
    D|-9999999999999999-9999999999999999-6666666666-777777777/6666-|
    A|-7777777777777777-9999999999999999-4444444444-555555555/4444-|…
  • Intro  (clean)
    e|-----------------------------|
    B|-----------------------------|
    G|-777777-777777-7777777777777-|
    D|-xxxxxx-555555-xxxxxxxxxx777-|
    A|-555555-777777-5555555555555-| 
    E|-777777----------------------|
    
    e|--------------------------------------|
    B|--------------------------------------|
    G|-777777-777777-777777-999999-11111111-|
    D|-xxxxxx-555555-xxxxxx-xxxxxx--x-x-x-x-|
    A|-555555-777777-555555-777777--9-9-9-9-|
    E|-777777-------------------------------|…
  • Intro
    e|---------------------------------------|
    B|---------------------------------------|
    G|-999999-9999999-9999999-999999-999999--|
    D|-999999-9999999-9999999-999999-999999--|
    A|-777777-6666666-0000000-999999-777777--|…
  • Intro
    e|-----------------------------------------------------------|
    B|--------0--------------------------------------------------|
    G|------2---2-----------0-------------0-------------0--------|
    D|----2-------2---2---0---0-0-0-----0---0-0-0-----0---0-0-0--|
    A|--0-----------0---2-----------2h3-----------3p2------------|
    E|-----------------------------------------------------------|
    
    e|-------------------------------------------------------------|
    B|------0------------------------------------------------------|
    G|--------0-------------0-------------0-------------0----------|
    D|----2-----2---0-----0---0-0-0-----0---0-0-0-----0---0-0-0-0--|
    A|--0---------0---0-2-----------2h3-----------3p2--------------|
    E|-------------------------------------------------------------|
    
    e|-----------------------------------------------------------|
    B|------0----------------------------------------------------|
    G|--------2-----2-------0-------------0-------------0--------|
    D|----2-----2-----2---0---0-0-0-----0---0-0-0-----0---0-0-0--|
    A|--0---------0-----2-----------2h3-----------3p2------------|
    E|-----------------------------------------------------------|
    
    e|-------------------------------------------------|
    B|------0------------------------------------------|
    G|--------2-----2-------0-------------0------------|
    D|----2-----2-----2---0---0-0-0-----0---0-0-0------|
    A|--0---------0-----2-----------2h3-----------3p2~-|
    E|-------------------------------------------------|
    
    
    Verse
    e|------------------------------------------|
    B|--0000000000-000000000-00000000000000000--|
    G|--2222222222-000000000-00000000000000000--|
    D|--2222222222-222222222-00000000000000000--|
    A|--0000000000-333333333-22222222222222222--|
    E|------------------------------------------|
    
    e|--0000000000-----33333-----3333------------------|
    B|--0000000000-000033333-00003333-3---3---3---3----|
    G|--2222222222-000000000-00000000---2---2---2---0--|
    D|--2222222222-222222222-00000000------------------|
    A|--0000000000-333333333-22222222------------------|
    E|-------------------------------------------------|
    
    
    Chorus
    e|--0000000000-----33333-----3333-00000000--|
    B|--0000000000-000033333-00003333-33333333--|
    G|--2222222222-000000000-00000000-22222222--|
    D|--2222222222-222222222-00000000-00000000--|
    A|--0000000000-333333333-22222222-00000000--|
    E|------------------------------------------|
    
    e|--0000000000-----33333-----3333-00000000--|
    B|--0000000000-000033333-00003333-33333333--|
    G|--2222222222-000000000-00000000-22222222--|
    D|--2222222222-222222222-00000000-00000000--|
    A|--0000000000-333333333-22222222-00000000--|
    E|------------------------------------------|
    
    e|--------------------------------00000000--|
    B|--000000000-0000000000-00000000-33333333--|
    G|--222222222-0000000000-00000000-22222222--|
    D|--222222222-2222222222-00000000-00000000--|
    A|--000000000-3333333333-22222222-00000000--|
    E|-----------------------33333333-----------|
    
    e|------------------------------------------|
    B|--000000000-0000000000-33333333-00000000--|
    G|--222222222-0000000000-22222222-00000000--|
    D|--222222222-2222222222-00000000-00000000--|
    A|--000000000-3333333333-00000000-22222222--|
    E|--------------------------------33333333--|
    
    
    Verse
    e|------------------------------------------|
    B|--0000000000-000000000-00000000000000000--|
    G|--2222222222-000000000-00000000000000000--|
    D|--2222222222-222222222-00000000000000000--|
    A|--0000000000-333333333-22222222222222222--|
    E|------------------------------------------|
    
    e|--0000000000-----33333-----3333------------------|
    B|--0000000000-000033333-00003333-3---3---3---3----|
    G|--2222222222-000000000-00000000---2---2---2---0--|
    D|--2222222222-222222222-00000000------------------|
    A|--0000000000-333333333-22222222------------------|
    E|-------------------------------------------------|
    
    
    Chorus
    e|--0000000000-----33333-----3333-00000000--|
    B|--0000000000-000033333-00003333-33333333--|
    G|--2222222222-000000000-00000000-22222222--|
    D|--2222222222-222222222-00000000-00000000--|
    A|--0000000000-333333333-22222222-00000000--|
    E|------------------------------------------|
    
    e|--0000000000-----33333-----3333-00000000--|
    B|--0000000000-000033333-00003333-33333333--|
    G|--2222222222-000000000-00000000-22222222--|
    D|--2222222222-222222222-00000000-00000000--|
    A|--0000000000-333333333-22222222-00000000--|
    E|------------------------------------------|
    
    e|--------------------------------00000000--|
    B|--000000000-0000000000-00000000-33333333--|
    G|--222222222-0000000000-00000000-22222222--|
    D|--222222222-2222222222-00000000-00000000--|
    A|--000000000-3333333333-22222222-00000000--|
    E|-----------------------33333333-----------|
    
    e|------------------------------------------|
    B|--000000000-0000000000-33333333-00000000--|
    G|--222222222-0000000000-22222222-00000000--|
    D|--222222222-2222222222-00000000-00000000--|
    A|--000000000-3333333333-00000000-22222222--|
    E|--------------------------------33333333--|
    
    
    Breakdown
    e|------------------------------------|
    B|-------3------3------3------3---3---|
    G|-----2------0------0------2---2---2-|
    D|---2------2------0------0-----------|
    A|-0------3------2------0-------------|…
  • Intro
    e|----------|
    B|----------|
    G|-77777777-|
    D|----------|
    A|----------|
    E|----------|
    
    
    Chorus
    e|-----------------------------|
    B|-----------------------------|
    G|-77777-------99999-----------|
    D|-77777-77777-99999-55555-5---|
    A|-55555-77777-77777-55555---5-|…
  • Intro
    e|--------------------------------------------------------|
    B|--------------------------------------------------------|
    G|-5555-5555-55--3333-3333-33--8888-8888-88--7777-7777-77-|
    D|-xxxx-xxxx-xx--xxxx-xxxx-xx--xxxx-xxxx-xx--xxxx-xxxx-xx-|
    A|-3333-3333-33--1111-1111-11--6666-6666-66--5555-5555-55-|…
Наверх