Аккорды Corbino - Breathe

Добавлено: @romashka
Дата добавления: 14 Мая 2024г.
Рейтинг:
0.0
Просмотров: 18
   C

e|-----0---0----|-----0---0----|-----0---0----|-----0---0----|
B|-----1---1----|-----1---1----|-----1---1----|-----1---1----|
G|-----0---0----|-----0---0----|-----0---0----|-----0---0----|
D|-----2---2----|-----2---2----|-----2---2----|-----2---2----|
A|-3------------|-3------------|-3------------|-3------------|
E|--------------|--------------|--------------|--------------|

   F64

e|-----1---1----|-----1---1----|-----1---1----|-----1---1----|
B|-----1---1----|-----1---1----|-----1---1----|-----1---1----|
G|-----2---2----|-----2---2----|-----2---2----|-----2---0----|
D|-----3---3----|-----3---3----|-----3---3----|-----3---3----|
A|-3------------|-3------------|-3------------|-3------------|
E|--------------|--------------|--------------|--------------|

   F

e|-----1---1----|-----1---1----|-----1---1----|-----1---0----|
B|-----1---1----|-----1---1----|-----1---1----|-----1---1----|
G|-----2---2----|-----2---2----|-----2---2----|-----2---2----|
D|-----3---3----|-----3---3----|-----3---3----|-----3---2----|
A|-----3---3----|-----3---3----|-----3---3----|-----3---0----|
E|-1------------|-1------------|-1------------|-1------------|

   FM7

e|-----0---0----|-----0---0----|-----0---0----|-----0---0----|
B|-----1---1----|-----1---1----|-----1---1----|-----1---1----|
G|-----2---2----|-----2---2----|-----2---2----|-----2---2----|
D|-----3---3----|-----3---3----|-----3---3----|-----3---2----|
A|-----3---3----|-----3---3----|-----3---3----|-----3---0----|
E|-1------------|-1------------|-1------------|-1------------|

   FM43

e|-----0---0----|-----0---0----|-----0---0----|-----0---0----|
B|-----1---1----|-----1---1----|-----1---1----|-----1---1----|
G|-----2---2----|-----2---2----|-----2---2----|-----2---2----|
D|-----3---3----|-----3---3----|-----3---3----|-----3---2----|
A|-3------------|-3------------|-3------------|-3------------|
E|--------------|--------------|--------------|--------------|

  A

e|-----0---0----|-----0---0----|
B|-----1---1----|-----1---1----|
G|-----2---2----|-----2---2----|
D|-----2---2----|-----2---2----|
A|-0------------|-0------------|
E|--------------|--------------|

   G

e|-----3---3----|-----3---3----|
B|-----0---0----|-----0---0----|
G|-----0---0----|-----0---0----|
D|-----0---0----|-----0---0----|
A|-----2---2----|-----2---2----|
E|-3------------|-3------------|

[Verse 1]

C   C                                F64
I′m getting real tired of sleeping alone
C                                   F
Looking for someone that I can call home
         C                                 F64
And I've been feeling nervous, I don′t know why
      C                                F
But I feel a bit better when I close my eyes

[Chorus]

         C*  G* F
And just try to  breathe
           C* G* FM7
Breathe in everything
      C*   G* FM7
Oh to hear the sound
       C                   F64                       F64*
Of the life that surrounds me keeps me on the ground

[Verse 2]

       C                                       F64
I just want to do something that makes me feel real
            C                                  FM7
Through the holes in my shoes find my Achilles heel
         C                                        F64
And I've been feeling nervous though I don't know why
          C                                 FM7
Oh, but I feel a bit better when you hold me tight

[Chorus]

      C*   G* FM7
And I feel you brеathe
           C* G* FM7
Breathe in еverything
      C*   G* FM7
Oh to hear the sound
       C                            FM43                 FM43*
Of the life that′s within you makes my head spin ′round
          A              G
Oh please don't wait for me
        C                          FM7
Cause I know that I am right where I′m supposed to be

[Bridge]

          A            G
Oh please don't let me go
         C                        FM7
Will you love me the next time we meet I don′t know
      A
I hope so
        G
Hold me close

[Outro]

    C      FM43
And breathe
     C       FM7
Just breathe
C      FM43
Breathe
     C      FM7 FM7*
Just breathe
Музыка не только фактор облагораживающий, воспитательный. Музыка – целитель здоровья (Бехтерев)
Мы стремимся к созданию контента, соответствующего всем нормам законодательства и уважающего интеллектуальную собственность. Мы также придаем большое значение тому, чтобы не задеть никого и не оскорбить чьи-либо чувства. Если у вас есть вопросы или претензии по размещенному материалу, пожалуйста, сообщите нам об этом.
Шрифт
-
0
+
Прокрутка
-
0
+
Стоп
Наверх