Аккорды «Danzig»

Danzig
Danzig — американская хеви-метал-группа, смешивающая мрачную лирику и образы с блюз-роковыми веяниями. Группа является третьей стадией музыкальной карьеры Гленна Данзига, который до этого играл в хоррор-панк-группах Misfits и Samhain. 1986—1987 14 июля 1986 года Samhain исполняли прощальный концерт в Ritz в Нью-Йорке. На шоу присутствовал Рик Рубин, который искал группы с потенциалом, чтобы подписать их на свой звукозаписывающий лейбл, Def Jam. Во время просмотра выступления Samhain, Рубин… Читать полностью... Danzig — американская хеви-метал-группа, смешивающая мрачную лирику и образы с блюз-роковыми веяниями. Группа является третьей стадией музыкальной карьеры Гленна Данзига, который до этого играл в хоррор-панк-группах Misfits и Samhain. 1986—1987 14 июля 1986 года Samhain исполняли прощальный концерт в Ritz в Нью-Йорке. На шоу присутствовал Рик Рубин, который искал группы с потенциалом, чтобы подписать их на свой звукозаписывающий лейбл, Def Jam. Во время просмотра выступления Samhain, Рубин был впечатлён тем, вокальными способностями Гленна Данзига и его манерой поведения на сцене. После концерта Рубин встретился с Гленном и предложил заключить контракт. Изначально Рик Рубин хотел заключить контракт только с Данзигом, намереваясь сделать его вокалистом хард-рок-группы supergroup, которую Рубин планировал создать, но Данзиг отказался подписывать контракт без басиста Samhain, Иири Вона, который был большим другом Гленна. Рубин согласился подписать контракт с Samhain, и начал вносить предложения касаемо нового направления группы, как он его видел. Рубин считал, что музыку группы нужно избавить от лишних элементов, и что основной отличительной чертой группы должны стать вокальные таланты Данзига. В 1987 году группа эволюционировала в прочный хард-рок коллектив, с добавившимися в состав Джоном Крайстом на гитаре и Чаком Бисквитсом (экс-Black Flag) на ударных. Чтобы отразить изменение музыкального направления и чтобы избежать необходимости когда-либо начинать заново в случае будущих перемен в составе, Данзиг решает поменять название группы с Samhain на свою собственную фамилию, Danzig. 1987—1994 (Классическая эра) Окончательно сформировавшись и приступив к записи как Danzig в предыдущем году, в 1988 году группа выпустила одноимённый дебютный альбом на заново созданном лейбле Рика Рубина Def American (позже переименованный в American Recordings). Альбом, спродюсированный Рубином, содержал основанные на блюзе гитарные рифы и мощный мелодичный вокал Данзига — резкий контраст с грубым звучанием альбомов Samhain. В 1990 году Danzig выпустили второй альбом, Danzig II: Lucifuge, наиболее разнообразный альбом группы. Музыка альбома продолжила размывать границы между классическим блюзом и хард-роком. В 1992 году вмешательство Рубина в творчество группы пошло на убыль, и Данзиг лично занялся со-продюсированием третьего альбома, Danzig III: How the Gods Kill. В следующем году группа выпустила EP Thrall: Demonsweatlive, содержащий несколько концертных треков, записанных на концерте группы в 1992-м, посвященном Хэллоуину, а также три новых студийных трека. Одна из песен с альбома стала хитом группы, когда живая версия «Mother» (песня с первого альбома Danzig) приобрела популярность на хард-рок радиостанциях. Новая версия видеоклипа на «Mother» была снята с использованием записей с концерта, и получившееся видео стало хитом на MTV, сделав Danzig мейнстримом. Когда Danzig оказались в центре внимания, споры, окружающие лирику и образы Гленна Данзига, возросли. Консервативные христианские группы обвинили Данзига в сатанизме; Данзиг опроверг эти обвинения в своём официальном заявлении через своего пресс-секретаря: «Мы приветствуем их презрение». Данзиг многократно отрицал обвинения в причастности к сатанизму, утверждая, что он отвергает все религии, особенно массовые, но восхищается природой зла и едва ли считает Сатану достаточно интересной фигурой в христианской теологии. В октябре 1993 года группа вошла в студию, чтобы записать свой четвёртый студийный альбом. Данзиг сказал, что на него давил звукозаписывающий лейбл, требуя записать песни с коммерческим прицелом на манер «очередной Mother», но он принял решение не отступать от своего музыкального прогресса. Он также сказал, что Рик Рубин стал все больше удаляться от группы и сделал незначительный вклад в запись четвёртого альбома, и в качестве продюсера был указан только Глен Данзиг. 4 октября 1994 года был выпущен Danzig 4, более атмосферный и экспериментальный альбом по сравнению с предыдущими релизами группы, возродивший элементы продюсирования, которые Danzig почти не использовали со времён Samhain. Альбом хорошо продался, несмотря на отсутствие хитов уровня сингла «Mother». Второй сингл с альбома, «Cantspeak», получил активную ротацию на MTV, и вошёл в рок-чарты, хотя (в отличие от «Mother») и не смог попасть в сотню лучших Hot 100. «Cantspeak» стал единственным синглом, помимо «Mother», попавшим в чарт Billboard. Обвинив Рубина в невыплате роялти и нарушении обещаний, отношения Danzig с продюсером были испорчены и группа покинула лейбл. Тем временем состав группы начал изменяться. Первым стал Чак Бисквитс, покинувший группу летом 1994 года из-за разногласий, связанных с роялти. После того, как на просьбу вернуться он ответил отказом, место ударника занял Джои Кастильо, впервые выступивший в качестве музыканта Danzig в день выхода четвёртого альбома. Хотя группа успешно провела турне с новым ударником осенью-зимой 1994-95, весной 1995 Danzig приступили к активным поискам нового гитариста. Джон Крайст, узнавший об этом и всегда бывший недовольным своей ролью и отсутствием вклада в творчество группы, покинул группу 5 июля 1995 г. Случайно совпало, что Иири Вон ушёл из группы в тот же самый день, завершив таким образом то, что впоследствии часто называли «классической эрой» группы. Гленн Данзиг заявил, что он всегда хотел поменять состав, но оригинальный состав хорошо работал и оставался неизменным намного дольше, чем он ожидал. С завершением классической эры, каждый последующий альбом Danzig записывался с разными составами. 1995—1999 В 1996 году вышел Danzig 5: Blackacidevil, многих удививший сильным акцентом на индустриальный рок. Данзиг утверждал, что только Рик Рубин удерживал его от экспериментов с электроникой на ранних альбомах Danzig, поэтому он сгорал от желания беспрепятственно внедрить на пятом альбоме индустриальное звучание. Альбом в основном представлял собой сольную работу Данзига, хотя Джерри Кэнтрелл из Alice in Chains сыграл партии соло-гитары на трёх треках альбома, а ударные партии были закреплены за Джои Кастильо, единственным музыкантом группы, оставшимся со времён тура 4P Tour (Джои в дальнейшем принял участие в записи ещё двух альбомов Danzig, став таким образом самым долгоиграющим участником группы, не считая основного состава). В онлайновых опросах этот альбом часто становится худшим альбомом Danzig среди поклонников группы, возможно из-за резкой смены звучания по сравнению с первыми четырьмя релизами. К тому же вокал Данзига всегда был отличительной чертой группы, в то время как большинство песен на Blackacidevil содержали его вокал, сильно искаженный различными эффектами. Другие фаны группы приняли альбом благосклонно, рассматривая его как возврат Danzig к более экспериментальному стилю Samhain. Следующие пару лет Danzig были заняты судебными препирательствами с Риком Рубином насчёт прав на неизданный материал группы, записанный на American Recordings. Получив по результатам суда все права, Danzig вошли в студию для записи шестого полноформатного альбома. В ноябре 1999 года Danzig 6:66 Satan's Child был издан, вызвав смешанную реакцию у поклонников и критиков. Альбом представлял собой темный и тяжелый хард-рок, подчеркнутый умеренной электроникой, с Данзигом, поющим на многих песнях нехарактерным хриплым шепчущим голосом. Некоторые критики и поклонники описывали звучание альбома как схожее с нью-металом, жанром тяжелой музыки, которую Данзиг ненавидел. Эту схожесть часто списывали на то, что продюсированием альбома занимались Джей Гордон и Амир Дерак из электропоп/нью-метал-группы Orgy После 2000 В 2000 году состав Danzig стабилизировался с добавлением гитариста Тодда Юфа и бас-гитариста Хоуви Пиро, оба ветераны нью-йоркской панк-сцены. В 2002 году с этим составом был записан и выпущен альбом Danzig 777: I Luciferi. Альбом был лишён электроники и содержал несколько наиболее мрачных и тяжёлых песен за всю историю Danzig. Несколько треков с I Luciferi отсылают к классическому звучанию группы, и многие поклонники сочли это признаком возвращения Danzig к своему раннему стилю, хотя некоторые были разочарованы качеством записи альбома. В 2004 году Danzig выпустили восьмой студийный альбом, Circle of Snakes, который, как и предыдущий альбом, многие поклонники сочли одним из лучших в плане вокала, со времен классической эры группы. На Circle of Snakes состав группы был вновь изменен и теперь включал Томми Виктора из Prong на гитаре; Виктор уже выступал в турне в качестве участника Danzig несколько лет назад, но никогда не принимал участие в записи альбома с группой. Звучание снова претерпело изменения, на этот раз в каждой песне доминирующую роль играла гитара Томми Виктора. Это стало поводом для нареканий со стороны критиков, потому что ударные и вокальные партии были похоронены под плотным звуком гитарных партий Томми. Вскоре после выхода этого альбома, Danzig заняли место хэдлайнера в туре по США Blackest of the Black tour, заменив ударника Бевана Дэйвиса (сыгравшего на Circle of Snakes) на Джонни Келли из Type O Negative. «The Blackest of the Black» был предназначен для того, чтобы наиболее любимые андеграундные группы Гленна Данзига смогли привлечь больше слушателей, а поклонники тяжелой музыки получили альтернативу фестивалю Ozzfest, который, по мнению Данзига, начинал переполняться коммерциализированными нью-метал-группами. На время концертов Blackest of the Black, проводимых в 2005, к составу Danzig присоединился наиболее известный гитарист Misfits Дойл для исполнения классических песен Misfits. Эти концерты стали первым случаем за 20 лет, когда Danzig играли с Дойлом, и билеты на многие из этих концертов были полностью проданы. В течение 2006 года Гленн Данзиг неоднократно говорил в различных интервью, что все больше устает от бесконечного цикла туров, и не намерен в дальнейшем принимать участие в каких-либо крупномасштабных концертных турне. Вместо этого, Данзиг планировал устраивать небольшие локальные туры, такие, как десять концертов, проведённых на западном побережье США в рамках тура 2006 Blackest of the Black. В этом туре дебютировал Кенни Хики из Type O Negative в качестве нового гитариста группы, а во время концертов на восточном побережье к составу добавился бывший участник Samhain, Стив Зинг на бас-гитаре. Данзиг сказал, что планирует использовать освободившиеся от участия в турах время, чтобы закончить различных незавершённые проекты, и уделить больше внимания немузыкальным увлечениям, таким как написание сценариев к фильмам и режиссура. В октябре 2006 года Данзиг выпустил Black Aria II, продолжение своего первого сольного альбома, Black Aria. Остаток года он провел за продюсированием и комплектацией The Lost Tracks of Danzig, двойного CD, который содержал 26 неизданных песен, охватывающих всё творчество Danzig, и вышел 10 июля 2007 г. В мае 2007-го Evilive переиздали первый сольный альбом Данзига Black Aria. СОСТАВ ГРУППЫ Текущий состав * Гленн Данзиг (Glenn Danzig) — вокал, ритм-гитара, клавишные (1987-настоящее) * Томми Виктор (Tommy Victor)— гитара (1997—1998, 2002—2005, 2008-настоящее) * Стив Зинг (Steve Zing) — бас-гитара, бэк-вокал (2006-настоящее) * Джонни Келли (Johnny Kelly) — ударные, перкуссия (2002—2003, 2005-настоящее) Бывшие участники * Джон Крайст (John Christ) — гитара (1987-1995) * Том Орио-Нист (Tom Orio-Nist) — гитара (1996) * Дэйв Кашнер (Dave Kushner) — гитара (1997) * Джефф Чэмберс (Jeff Chambers) — гитара (1998—1999) * Тодд Юф (Todd Youth) — гитара (1999—2002) * Джо Фралоб (Joe Fraulob) — гитара (2005—2006) * Кенни Хики (Kenny Hickey) — гитара (2006—2007) * Коди Наколс — гитара (2007) * Дойл Вольфганг Фон Франкенштейн (Doyle Wolfgang von Frankenstein) — приглашённый концертный гитарист (2006) * Иири Вон (Eerie Von) — бас-гитара (1987—1995) * Джош Лэйзи (Josh Lazie) — бас-гитара (1996—1997, 1998—2000) * Роб Ничолсон "Blasko" (Rob Nicholson) — бас-гитара (1997—1998) * Хоуви Пиро (Howie Pyro) — бас-гитара (2000—2002) * Джерри Монтано (Jerry Montano)— бас-гитара (2002—2006) * Чак Бисквитс (Chuck Biscuits) — ударные, перкуссия (1987—1994) * Джои Кастильо (Joey Castillo)— ударные, перкуссия (1994—2002) * Чарли Джонсон (Charlee Johnson) — ударные, перкуссия (2002) * Беван Дэйвис (Bevan Davies) — ударные, перкуссия (2004—2005) * Марк Повелл (Mark Powell) — ударные, перкуссия (2005) * Карл Росквист (Karl Rosqvist) — ударные, перкуссия (2007) * Роберт Бенковиц — соло-гитара (2000—2002, 2007-2008) Дискография: * Danzig I - 1988 * Danzig II - Lucifuge - 1990 * Danzig III - How The Gods Kill - 1992 * Thrall-Demonsweatlive - 1993 * Danzig 4p - 1994 * Sacrifice - 1996 * Danzig 5 - Blackacidevil - 1996 * Danzig 6:66 - Satan's Child - 1999 * Live On The Black Hand Side - 2001 * Danzig 7:77 - I Luciferi - 2002 * Circle Of Snakes - 2004 * The Lost Tracks Of Danzig - 2007 * Deth Red Sabaoth - 2010 Дополнительные факты * В различные эпизоды Бивиса и Баттхеда вошли четыре видео на песни Danzig. * В октябре 2004, «Mother» вошла в популярную компьютерную игру Grand Theft Auto: San Andreas, и исполнялась на игровой радиостанции «Radio X». * В ноябре 2005, «Mother» вошла в компьютерную игру True Crime: New York City. * В ноябре 2006, «Mother» вошла в популярную компьютерную игру Guitar Hero II. * В течение бейсбольного сезона 2004 главной лиги игрок Boston Red Sox Кейт Фолк использовал «Mother» в качестве мелодии при появлении, как это делал Мариано Ривера с «Enter Sandman». * Оригинальная лирика к песне SkinCarver содержала строчку «Умерли все мои друзья» (англ. "All my friends have died"). Позднее строчка была заменена на «Весь этот мир должен умереть» (англ. "All the world must die"). * В триллере 8 миллиметров можно увидеть постер Danzig в комнате Машины. * Гленн Данзиг принял участие в эпизоде «The Cybernetic Ghost of Christmas Past From the Future» мультфильма Aqua Teen Hunger Force, где он покупает дом у соседа Карла. * Сэмплы из «Mother» использовались в телерекламе от Fox Network в 2008, для раскрутки нового сериала «Terminator: The Sarah Connor Chronicles». * Омар Эспиноза, бывший гитарист пост-хардкор-группы Escape the Fate, одет в футболку с логотипом Danzig в видеоклипе на песню «Situations». * Песня "Underbelly Of The Beast" звучит в фильме "Ворон 3: Спасение" в тот момент, когда главный герой разбивает дорогой Chevrolet Corvette C5. * Песня Soul On Fire была взята в саундтрек к фильму Fallen.Ride the sky к ролику Криса Коула. *Песня "Thirteen" использовалась в качестве саундтрека к фильму Мальчишник в Вегасе", а песня "Black Hell" играла в начале второй части фильма "Мальчишник-2. Из Вегаса в Бангкок". *В июне 2011, «Mother» вошла в компьютерную игру F.E.A.R. 3. Ссылки: Официальный сайт группы: http://www.danzig-verotik.com/ Официальный фан-сайт Danzig: http://www.7thhouse.com/ Скрыть...
Популярные аккорды Danzig:
алфавиту | просмотрам | случайно
  • Intro                 Main Verse
    e:---------|-------------------|---------------------------------|
    B:---------|-------------------|---------------------------------|
    G:---------|-------------------|---------------------------------|
    D:---9-----|--5----7----9------|--------5--------7--------9-9-9--|
    A:---9-----|--5----7----9------|--------5--------7--------9-9-9--|
    E:---7-----|--3----5----7------|--7--5--3--3--5--5--5--7--7-0-7--|…
  • intro:
    E|-----------------|
    B|-----------------|
    G|-----------------|
    D|-----------------|
    A|-6^--------------|
    E|-----------------|
    
      main riff / chorus riff:
    E|-----------------|-----------------|-----------------|-------------------+
    B|-----------------|-----------------|-----------------|-------------------+
    G|-----------------|-----------------|-----------------|-8--8--8-----------+
    D|-----------------|-AH--------------|-----------------|-8--8--8-----------+
    A|-7---0-6-0-3-0-0-|-7---0-6-0-3-0-0-|-7-7-0-6-0-3-0-0-|-6--6--6-----6^----+
    E+-----------------|-----------------|-----------------|-6--6--6-----------+…
  • Intro:
    
    e|-----------------|-----------------|-14~~~~~~~~~~~~~~~~~~~~~~~~~~~-|
    B|-----------------|-----------------|-------------------------------|
    G|-----------------|-----------------|-------------------------------|
    D|-----------------|-----------------|-------------------------------|
    A|-----------------|-----------------|-------------------------------|
    E|-7d-----5t~~~~---|-9d-----5t~~~~---|-------------------------------|
    
    e|-------------------------------|-------------------------------|
    B|-------------------------------|-------------------------------|
    G|-------------------------------|-------------------------------|
    D|-------------------------------|-------------------------------|
    A|-------------------------------|-------------------------------|
    E|-9(10)-(10)-(10)-(10)--7d------|-9(10)-(10)-(10)-(10)--7d------|
    
    e|-------------------------------|------------------------------------------------------|
    B|-------------------------------|------------------------------------------------------|
    G|-------------------------------|-------------------------7-9(11)—9(11)-9(11)-9p7---7~-|
    D|-------------------------------|-----------------------9-------------------------9----|
    A|-------------------------------|------------------------------------------------------|
    E|-9(10)-(10)-(10)-(10)--7d------|-9(10)-(10)-(10)-(10)---------------------------------|
    
    Verse…
  • Riff 1
    
        Pick Scrape             Play 6 times then play part 2
    e|---------------------------------------------------------------------------|
    B|---------------------------------------------------------------------------|
    G|---------------------------------------------------------------------------|
    D|----------------10H12----12--12-12-12--10H12----12--12-12-12---------------|
    A|--/---/---------10-------10--10-10-10--10-10----10--10-10-10---------------|
    E|--/---/--------------------------------------------------------------------|…
  • Tuning:Standard
    
    e|-------------------------------------------------------------------------|
    B|-------------------------------------------------------------------------|
    G|-------------------------------------------------------------------------|
    D|----11----9-----7----6---------------------------------------------------|
    A|--11-----9-----7----6----------------------------------------------------|
    E|-9------7-----5----4-----------------------------------------------------|
    chorus
    e|-9-----7----5----4-------------------------------------------------------|
    B|-9-----7----5----4-------------------------------------------------------|
    G|-9-----7----5----4-------------------------------------------------------|
    D|-11----9----7----6-------------------------------------------------------|
    A|-11----9----7----6-------------------------------------------------------|
    E|-9-----7----5----4-------------------------------------------------------|
    variations…
  • Intro (piano arranged for guitar):
    -----------------------------------------------------|
    -----------------------------------------------------|
    --4-----4-----4----7----2----7----4---------2----7---|
    4-------------------------------------2--------------|
    --2-----2-----2----5----0----5----2---2-----0----5---|
    --------------------------------------0--------------|
    
    Verse
    --------------------------------------------------------------|
    --------------------------------------------------------------|
    --------------------------------------------------------------|
    -4---------------7---------------2---------------7------7--7--|
    -2--2-2-2-2-2-2--5--5-5-5-5-5-5--0--0-0-0-0-0-0--5--5-5-5--5--|
    --------------------------------------------------------------|
    
    ----------------------------------------------------------------|
    ----------------------------------------------------------------|
    ----------------------------------------------------------------|
    -4-------------------------------2---------------7------7--7----|
    -2--2-2-2-2-2-2---2--------------0--0-0-0-0-0-0--5--5-5-5--5----|
    ------------------0---------------------------------------------|
    
    Chorus
    ----------------------------------|
    ----------------------------------|
    ----------------------------------|
    -4-4--7-7--9-9----------------7---|
    -2-2--5-5--7-7-------5--5-5---5---|
    ---------------------3--3-3-------|
    
    Solo
    -------------|-------------|-------------|-------------------|
    -------------|-------------|-------------|-------------------|
    -------------|-------------|-------------|-------------------|
    -----x15-----|--x8---------|-----x7------|-------------7-----|
    --4--4-4--4--|--5--5-5--5--|--4--4-4--4--|----5--------5-----|
    --2--2-2--2--|--3--3-3--3--|--2--2-2--2--|----3--------------|
    
    Outro
    ------------|-----------------------------------|
    ------------|-----------------------------------|
    ------------|-----------------------------------|
    -2----------|----7------------------------------|
    -2----------|-5--5----77777777777777777777\-----|
    -0-00000000-|-3---------------------------------|…
  • Intro:
    
    Structure 3/4 during all the song.
    
    Tempo : moderate rock
    Clean Sound
          Bbm                             Repeat 2 times.
    |------------------------|--------------------------|
    |------------------------|--------------------------|
    |-o---------3------------|---------3-------------o--|
    |-o------3-----3-----3---|------3-----3-----3----o--|
    |-----1-----------1------|---1-----------1----------|
    |------------------------|--------------------------|…
  • Intro and Verse 1-4
    
    
     Asus4                   F7M  -5                     Cadd9
    
    ---0--------------      -------------------         ---0---------------|
    ---3--------------      ---3---------------         ---3---------------|
    ---2--------------…
  • SongFlow
    --------
    Figure 1 
    Fill 1
    Figure 1
    Fill 2
    Figure 2
    Figure 1 (5x)
    Fill 3
    Figure 2
    D B G F# (2x)
    G G G G
    F# F# F# F#
    Figure 1
    Fill 1
    Figure 1 (3x)
    Fill 3
    Figure 2
    D B G F# (4x) 
    G G G G 
    F# F#…
  • INTRO
        
    
         /\/          /\/       /\/          /\/
    E |-----------------------------------------------------------|
    B |-----------------------------------------------------------|
    G |-----------------------------------------------------------|…
  • Intro:
    e+-10--9--6--6--8--6--8 / 10--
    b+--8--8--4--4--4--4--4 /  8--
    g+--0--0--0--0--0--0--0-------
    d+----------------------------
    a+----------------------------
    e+----------------------------
    
      Verse:
    e+--10--9--(9)…
  • intro/outro:
    C |-------------------------|-------------------------|
    G |-------------------------|-------------------------|
    Eb|-------------------------|-------------------------|
    Bb|-------------------------|-------------------------|
    F…
  • Em:  -0-2-2-0-0-0-      D7/F#:  -2-0-0-2-1-0-      G:  -3-x-0-0-3-3-
    
      main riff:
    E|-3-------0-------0---------------|
    B|-3-------1-1^2---0---------------|  Note:  During the outro solo,
    G|-0-------2-------0---------------|…
  • SongFlow
    --------
    Intro
    Figure 1 (2x)
    Figure 2
    Figure 1
    Figure 3
    -----------
    Figure 1 (3x)
    Figure 2
    Figure 1
    Figure 3 (repeat)
    ---------------
    Figure 4
    Figure 3
    -----------
    Figure 1 (3x)
    Figure 2
    Figure…
  • main riff:
    E|----------------------------(8)------+ Notes: The '*' denotes where to
    B|----------------------------(8)------+ play an artificial harmonic.
    G|----------------------------/5*------+ The notes in parens are…
  • SongFlow
    --------
    Repeat Figure 1 for duration of song.
    Chords refer to second guitar, bass, & keyboards
    B D# B D#
    B D# B D#
    B D# B D#
    E E F# F#
    E E D#
    B D# B D#
    B D# B D#
    B D# B D#
    E E F# F#
    E E D#
    B D# G#…
  • main riff:
    C |---------------------------------|---------------------------------|
    G |---------------------------------|---------------------------------|
    Eb|-----4-----2---------------------|-----4-----2---------------------|
    Bb|-----------------5-----3-3-3-3-3-|-----------------3-----3-3-3-3-3-|
    F…
  • Drop D Tuning: DADGBE
    
    intro and pre chorus (in fact whole song)
    E|-------------------------------------|
    B|-------------------------------------|
    G|-------------------------------------|
    D|------000-0----------000-0---0-------|
    A|------888-7----------888-7--/10------|
    D|--0-------------0--------------------|…
  • RIFF 1 - play this clean with lots of hi and mids, minimal bass
    
    e|----1-1-1-----1-1-1-----1-1-1----------------------------------------------|
    B|----3-3-3-----2-2-2-----2-2-2----------------------------------------------|
    G|----2-2-2-----3-3-3-----3-3-3----------------------------------------------|
    D|---------------------------------------------------------------------------|
    A|--0-------1-1-------0-0-------1--------------------------------------------|
    E|1-------------------------------3-3-1--------------------------------------|
    
    
    RIFF…
  • Intro:
    E|---------------------------|
    B|---------------------------|
    G|----------------2------5---|
    D|--4-------------2------5---|
    A|--4-------------0------3---|
    E|--2----------0------0------|
    
    
      Verse:
    E|--------------------------------------------|
    B|--------------------------------------------|…
  • Tuning: Dropped-D down a step
    low to high: C G C F A D
    
    Intro:
    
    C --------------X-X-X-X
    G --12-10-12-10-X-X-X-X-10-12-
    C 9-------------X-X-X-X-------
    
    C --------------X-X-X-X
    G --12-10-12-10-X-X-X-X-10-
    C 9-------------X-X-X-X-12-
    
    
    X…
  • riff 1:                  riff 2:
    E|-------------------------------| |-------------------------------|
    B|-------------------------------| |-------------------------------|
    G|-------------------------------| |-------------------------------|
    D|-------------------------------|…
  • All guitars are tuned down 1/2 step
    
    SONGFLOW
    Intro 4x
    Figure 1 16x
    Figure 2
    Figure 1 12x
    Figure 2
    Fill 1
    Figure 3 2x
    Figure 3 w/ Figure 4 5x
    Fill 2 w/ Fill 3
    Figure 1 12x
    Figure 2 3x
    Outro
     
           INTRO…
  • Note: This song is played with triplet eights, giving the song a 
          shuffling rhythm.
    
      verse riff:
    E|---------------------------------|---------------------------------|
    B|---------------------------------|---------------------------------|
    G|-0---0---3--2----0---0---3--2----|-0---0---3--2----3---------------|
    D|-0---0---0--0----0---0---0--0----|-0---0---0--0----3-------5-------|
    A|---------------------------------|-----------------1-------5-------|
    E+---------------------------------|-------------------------3-------+…
  • Verse:
    e+------0------0-------0-------0--------0--------0--
    b+------0------0-------0-------0--------0--------0--
    g+--------------------------------------------------
    d+--9------9-------9-----10------12-------12--------
    a+--7------7-------7------8------10-------10--------
    e+--0---------------------0-------------------------…
  • Tune down one half step (D#, G#, C#, F#, A#, D#)
    
    VErSE 1 (play 5x)
    Acoustic w/flange
    D# |--------------------|-------------------
    A# |--------------------|-------------------
    F# |.-0---0---0---0--0-.|-0--0---0---0--0---
    C#…
  • INTRO/VERSE
    
    Guitar 1
         pm----------           pm--------         pm---   ~~~ ~~~~------|
    E ----------------------------------------------------------------------------|
    B ----------------------------------------------------------------------------|
    G…
  • SongFlow
    --------
    Drum Intro
    Intro
    Figure 1 (4x)
    Figure 2 (8x)
    Figure 3
    G F# E
    Figure 1
    G F# E
    Figure 1
    Figure 2 (4x)
    Figure 3
    G F# E
    Figure 1
    G F# E
    A G# G D
    A G# G F
    Figure 1 (4x)
    Figure 2 (4x)
    Figure…
  • INTRO
    
    E |-----------------------------------------------------------------------|
    B |-----------------------------------------------------------------------|
    G |.------------7---12--------------7---12-----------------5---7---7-----.|
    D…
  • E       G
    Come to silver
    D       A
    Come to gold
    E       G
    Come do any old thing
    D                  A
    Sell your body and soul
    E        G     
    Make you kill a man
    D         A
    Ruin your soul
    E       G
    Come to silver
    D…
  • Tuning: Tune 2 steps down to C
    
      Heres a great simple song by Danzig....Once you get the timing down its a lot of fun 
    play....Ease up on the distortion a bit as it tends to sound "Muddy" tuned down this low
    
    intro…
  • Bb C# C G# A# This riff get repeated after each verse
    
     Verse
    
    1000 devils reign 
    Up from the western shores
    1000 seasons smile
    Upon the bleeding horns
    
    
    
     chorus
                   C#  C
    Ones that you are
    Bb…
  • Tuning, lo to hi: C F Bb Eb G c
    
    part 1:
     c|----------------||---------------|
     G|----------------||---------------|
    Eb|----------------||--7-----5------|
    Bb|--2-----------2-||--7-----5------|
     F|--2-----------2-||--5-----3------|…
  • SongFlow
    --------
    Figure 1 (4x)
    Figure 2
    Fill 1
    Figure 3 (4x)
    Figure 2
    Fill 2
    Figure 4 (4x)
    Figure 2
    Fill 2
    Figure 3 (4x)
    Figure 1 (2x)
    Outro
    
    
    Figure 1
    e+-------------------+---------------------+
    B+-------------------+---------------------+
    G+--2----------------+--2--(2)--5----------+
    D+--2----------A.H.--+--2--(2)--5--5--(5)--+
    A+--0--3--0--7--6----+--0--(0)--3--5--(5)--+
    E+-------------------+-------------3--(3)--+
    
    
    Figure…
  • intro:
    E|-------------------------|-------------------------|
    B|-------17-------17-------|-------15-------17-------|
    G|----16-------16-------16-|----14-------16-------16-|
    D|-14-------14-------14----|-12-------14-------14----|
    A|-------------------------|-------------------------|
    E|-------------------------|-------------------------|…
  • SongFlow
    --------
    Figure 1 (6x) E
    Figure 2 (8x) G C A
    Figure 2 G C A
    Figure 2 (4x) G C A
    Figure 2 G C A
    Figure 2 (2x)
    Figure 3 (8x)
    Figure 4 (16X) E
    Figure 2 (6x with solo) G C A
    Figure 5 (3x) E
    
    
    Figure 1
    e+--------------------------------------------------------+
    B+--------------------------------------------------------+
    G+--------------------------------------------------------+
    D+-----------9\-----------12\------------9\----12-12-12---+
    A+-----------7\-----------10\------------7\----10-10-10---+
    E+--0-0-0-0------0-0-0-0--------0-0-0-0------0------------+…
  • Intro/Main Riff:
    
    E:----------11b---------------|
    B:----------------------------|
    G:----------------------9-9-9-|
    D:-11-11-11-------9-9-9-9-9-9-|
    A:-11-11-11-------9-9-9-7-7-7-|
    E:-9--9--9--------7-7-7-------|  x4…
  • main riff:
    E|-----------------|-----------------|-----------------|-----------------|
    B|-----------------|-----------------|-----------------|-----------------|
    G|-----2-------2---|-----2-------2---|-----2-------2---|-----2-------2---|
    D|---0---0---0---0-|---0---0---0---0-|---0---0---0---0-|---0---0---0---0-|
    A|-----------------|-----------------|-1-------1-------|-3-------3-------|
    E+-3-------0-------|-1-------1-------|-----------------|-----------------+…
  • Intro:
    E|--4------------------|
    B|--5------------------|
    G|--4------------------|
    D|--6------------------|
    A|--4--6--4------------|
    E|-----------6----4h6--|
    
    VERSE ONE:
    Before each ending:
    E|--4-----------|
    B|--5-----------|…
  • SongFlow
    --------
    Intro (4x)
    Figure 1 (4x)
    Fill 1
    Figure 1 (10x)
    Fill 2
    Figure 1 (10x)
    Fill 2
    Figure 3 (4x)
    Figure 1 (8x)
    Fill 2
    Figure 3 (4x)
    Figure 1 (10x)
    Fill 2
    Figure 3 (4x)
    Figure 1 (8x)
    Fill 2
    Outro
    
    
    Intro
    e+---------------------------+-------------------------+
    B+---------------------------+-------------------------+
    G+---------------------------+-------------------------+
    D+--7/9----------7/9---------+--7/9----------------12--+
    A+--5/7-7-7-7-7--5/7-7-7-7-7-+--5/7-7-7-7-7-7-7-7--10--+
    E+---------------------------+-------------------------+…
  • -songflow-
     Part 1 times 4
     Part 2 times 1
     Part 3 times 1
     Part 4 times 2
     Part 1 times 2
     Part 3 times 1
     Part 4 times 2
     Part 1 times 2
     Part 5 times 2
     Part 3 under solo
     Part 1 times 2
     Part 2 times 4  ending…
  • INTRO
                            2x             PH
    E |-----------------------|----------------------------------------------|
    B |-----------------------|----------------------------------------------|
    G |.---------------------.|----------------------------------------------|
    D…
  • Tuning:standard (EADGBe)
    
    
    Intro/ chorus
    e|----------------------------------|
    B|----------------------------------|
    G|----------------------------------|
    D|--22---88-7-5555555---------------|
    A|--22---88-7-5555555---------------|
    E|--00---66-5-3333333---------------|
    
    Verse…
  • Note: (G) is a bent note on the third fret, sixth string.
    
     A
     A  C D  A  D C (2x) w/solo
     D  F E  D  F C      w/solo
     A  C D  A  D C      w/solo
     E  D  C             w/solo
     E  (G)
     A  C D  A  D C (2x)
     D  F E…
  • INTRO:
    
       PM..............................
    |----------------------------------|
    |----------------------------------|
    |----------------------------------|
    |----------------------------------|
    |----------------------------------|
    |--2-2-0-1-2-2-0-1-2-2-0-1-2-2-0-1-|…
  • Riff #1
    D|-------------------------------------|
    A|-------------------------------------|
    F|------<4>hb-----<4>fb---<4>hb--------|
    C|-------------------------------------|
    G|-2-2-2---2-2-2-2---2-2-2---2-2-2--3~-|
    D|-0-0-0---0-0-0-0---0-0-0---0-0-0--1~-|…
  • Tuning: (C F Bb Eb G c)
    
    main riff: 
    C |------------------|    |-----------------| 
    G |------------------|    |-----------------| 
    Eb|------3-----3-----|    |-----------------| 
    Bb|----2-----2-----3-| 4x |-----3-----3-----|…
  • intro/main riff:
    E|---------------------------------|---------------------------------|
    B|---------------------------------|---------------------------------|
    G|---------------------------------|---------------------------------|
    D|--ah----ah----ah-----------------|--ah----ah----ah---------7--/x\--|
    A|---7~----6~----5~----------------|---7~----6~----5~--------7--/x\--|
    E+-5-----5-----5-----5-8---5---8p5-|-5-----5-----5-----5-8---5--/x\--+…
  • SongFlow
    --------
    Intro
    Figure 1 (12x)
    Figure 2
    Figure 3 (8x)
    Figure 4 (4x)
    Figure 2 (double time)
    Figure 3 (8x)
    Figure 5 (4x)
    Outro
    
    Intro
    eb+-------------------+-----------------+------------------+
    Bb+-------------------+-----------------+------------------+
    Gb+o------4-------4---+-----4-------4---+-----0-------0----+
    Db+o----5---5---5---5-+---5---5---5---5-+---2---2---2------+
    Ab+-------------------+-----------------+-3-------3-----2--+
    Eb+---0-------0-------+-0-------0-------+------------------+
    
    
    Intro…
  • Tune down 1/2 step
    
    RIFF 1 (Intro)
    E -----------------------------------------------------------------------
    B -----------------------------------------------------------------------
    G -----------------3---2-------------------------------------------------
    D…
  • main riff:
    C |-------------------------|-------------------------|
    G |-------------------------|-------------------------|
    Eb|-------------------------|-------------------------|
    Bb|-2---2-------------------|-2---2-------------------|
    F…
  • Tuning: C-G-C-F-A-D (It could be Drop D, but I think it sounds better in C.)
    
    Intro 4x                                    Gtr. 2 starts here 2nd time
    |-------------------------------------------|-------|
    |-------------------------------------------|-------|
    |-------------------------------------------|-------|
    |-0--0-3-0-----0--0-3-0-----0--0-3-0--------|0-7-0-6|
    |-0--0-3-0-3^^-0--0-3-0-3^^-0--0-3-0--------|0-7-0-6|
    |-0--0-3-0-----0--0-3-0-----0--0-3-0-3/10/7-|0-7-0-6|…
  • intro: bridge:
    Eb|----------------------| |---------------------|
    Bb|----------------------| |---------------------|
    Gb|----------------------| |---------------------|
    Db|-2--------------5--5--| |-2----5---2------ah--|
    Ab|-2----7--5------5--5--|…
  • Fig. A
    
    D----------------------------------------
    A----------------------------------------
    E-0-0---0-0---0-0---0-0---5b8---5--------
    
    Fig B
    
    D------------------------------
    A------------------------------
    E-0-0---0-0---0-0---0-0--------
    
    Fig…
  • tuning is 1 1/2 steps down
    
    pretty simple riffs and it goes like this
    
    intro in mono with delay  play 2x  (figure A)
    
    E-----------------------------------
    B-----------------------------------
    G-----------------------------------
    D-----2-----2----4----5-5-----------
    A-----2-----2----4----5-5-----------
    E-----0-----0----2----3-3-----------
    
    
    main…
  • Tuning, lo to hi: C F Bb Eb G c
    
    Intro:
     c|------------------------||-------||
     G|------------------------||-------||
    Eb|------------------------||-------||
    Bb|------------------------||--4-4--||
     F|--2-----2h3--2----------||--4-4--||…
  • Tune 1 half step down
    
    beginning:
    Gb---------------------
    Db---------------------
    Ab---------------------
    Eb--0--0-0--2--2-2-3-2-   repeat
    
    verse:
    Gb----------------------------
    Db------6-----6-----6-------11
    Ab----------------------------
    Eb--5-5---7-7---8-8---10-10---
    
    repeat…
  • Note: There are two guitars on this track: an electric and an acoustic.
          They double each other, although not exactly.
          
      verse riff:
    E|-----------------|-----------------|-----------------|-------------------|
    B|-----------------|-----------------|-----------------|--3----------------|
    G|-----------------|-----------------|-----------------|-------------------|
    D|-----2-2---2-2-2-|-----2-2---2-2-2-|-----2-2---2-2-2-|-(2)---3-2---2-2-2-|
    A|-----2-2---2-2-2-|-----2-2---2-2-2-|-----2-2---2-2-2-|-(2)-2---2---2-2-2-|
    E|-3^--0-0---0-0-0-|-3^--0-0---0-0-0-|-3^--0-0---0-0-0-|-(0)-----0---0-0-0-|…
  • e|-------------------------------|
    B|-------------------------------|
    G|-------------------------------|
    D|--5-----6-----8-------6---8----|
    A|--3-----4-----6-------4---6--8-|
    E|--0-0-0-0-0-0-0-0-0-0-0-0-0----|…
  • INTRO:
    eb--------------------------------------------------|
    Bb--------------------------------------------------|
    Gb-------12--12-----12--12--14p12-------------------|
    Db----14---------14----------------14~~~~~----------|
    Ab--------------------------------------------------|
    Eb--------------------------------------------------|
    
    eb---------------------------------------------------|
    Bb-------14------------14----------------------------|
    Gb-------14--14~~~-----14--------12--12--14p12-------|
    Db----14------------14--------14---------------14~~~-|
    Ab---------------------------------------------------|
    Eb---------------------------------------------------|
    
    eb---------------------------------------------------|
    Bb---12----------15--12------12----------------------|
    Gb---14(bend)------------14------14--12---14--12-----|
    Db------------------------------------------------14-|
    Ab---------------------------------------------------|
    Eb---------------------------------------------------|
    
    eb--------------------------------------------------|
    Bb--------------------------------------------------|
    Gb---12---------------------------------------------|
    Db-------14--12--14~~~~~~~~-------------------------|
    Ab--------------------------------------------------|
    Eb--------------------------------------------------|
    
    
    verse…
  • Intro
            G A                         G A            
        e|---------------------------------------------------------------------|
        B|---------------------------------------------------------------------|…
  • riff 1a: riff 2: riff 1b: riff 3:
    Eb|---------------||-----------------||---------------||-----------------|
    Bb|---------------||-----------------||---------------||-----------------|
    Gb|---------------||-----------------||---------------||-4-------4-------|
    Db|---------------||-4-------4-------||-2^--0-2^--0---||-4-------4-------|
    Ab|-2^--0-2^--0---||-4-------4-------||---------------||-2---2-2-2---2-2-|
    Eb|---------------||-2---2-2-2---2-2-||---------------||-----------------|
    pm>…
  • Tuning:standard concert tuneing
    
    clean guitar dureing first part of song, later on its got distortion on 'er
    e|---------------------------------------------------------------------------|
    B|--------3-------------------3----------------------------------------------|
    G|----------3---------0-----0------------------------------------------------|
    D|------0-----5-----0-----0--------------------------------------------------|
    A|----0---------5-1-----0----------------------------------------------------|
    E|--3------------------------------------------------------------------------|
    
    distortion
    e|---------------------------------------------------------------------------|
    B|---------------------------------------------------------------------------|
    G|---------------------------------------------------------------------------|
    D|--5-5-5-5-8--------------6-6-6---------------------------------------------|
    A|--5-5-5-5-8--four…
  • Tuning:C F Bb Eb G c
    
    Intro:         
    e|-------------------------------------------------------------------------|
    B|-------------------------------------------------------------------------|
    G|-------------------------------------------------------------------------|
    D|-------------------------------------------------------------------------|
    A|---0---0---0---0---0---0---0---0---0--0-0---0---0------------------------|
    E|-4---4---2---4---4---2---4---4---2---4-4--4---2--------------------------|
    
    Verse:
    e|-------------------------------------------------------------------------|
    B|-------------------------------------------------------------------------|
    G|-------------------------------------------------------------------------|
    D|--6-6-6-6-6--10--9-------------------------------------------------------|
    A|--6-6-6-6-6--10--9---/9~-------------------------------------------------|
    E|--4-4-4-4-4---8--7-------------------------------------------------------|…
  • verse riff:                          bridge:
    E|---0-------------|---0-------------||---0-------0-----|---0-------------|
    B|---1---- w/fill -|---0-------------||---1-------1-----|---0-------------|
    G|---0-------------|---0-------------||---0-------0-----|---0-------------|
    D|-----------------|-----------------||-----------------|-----------------|
    A|-----------------|-----------------||-----------------|-----------------|
    E|-0---------------|-0---------------||-3-------2-------|-0---------------|…
  • Intro:
    E|----------------------------------------------------------
    B|----------10ah----10ah----10ah------------------------10--
    G|--/9b--9b------9b------9b------9b--(9b)h7------7--9b--9b--
    D|--------------------------------------9--------7--9b------
    A|-------------------------------------------/9-------------
    E|----------------------------------------------------------
    
    E|-------------|
    B|-------------|
    G|--(9b)h7-----|
    D|----------9--|
    A|-------------|
    E|-------------|
    
    Verse:…
  • riff 1a:                            riff 1b:
    E|---------------------------------| |---------------------------------|
    B|---------------------------------| |---------------------------------|
    G|---------------------------------|…
  • Tuning, lo to hi:  C F Bb Eb G C
    
    Part 1:
     c|--------------------------------|
     G|--------------------------------|
    Eb|----9-------12---11---9---8-----|
    Bb|----9-------12---11---9---8-----|
     F|----7-------10----9---7---6-----|…
  • intro: verse riff:
    Eb|------------------| Eb|------------------|------------------|
    Bb|------------------| Bb|------------------|------------------|
    Gb|------------------| Gb|------------------|------------------|
    Db|-------------5----|…
  • Intro/Chorus/Outro Riff
    eb|----------------------------------------------------------------|
    Bb|----------------------------------------------------------------|
    Gb|----------------------------------------------------------------|
    Db|----------------------------------------------------------------|
    Ab|-7-------5-7-7-------5-7-4-----4-----4-------4------------------|
    Eb|-5-000---3-5-5-000---3-5-2-0-0-2-0-0-2-0-0-0-2-0-0--------------|…
Наверх