Аккорды Дарья Виардо - Ангел похоронитель

Добавлено: @romashka
Дата добавления: 28 Ноября 2021г.
Рейтинг:
0.0
Просмотров: 69
Транспонировать - +
Bmaj7                            D#m7             C#    
e|--------------------------------------------------------------------------|
B|--------------------------------------------------------------------------|
G|------3-------3-------3-------3-------6-------6-------6-------6-----------|
D|----4---4---4---4---4---4---4---4---8---8---8---8---6---6---6---6---------|
A|--2-------2-------2-------2-------6-------6-------4-------4---------------|
E|--------------------------------------------------------------------------|
      Bmaj7                            D#m7             C#    
e|--------------------------------------------------------------------------|
B|--------------------------------------------------------------------------|
G|------3-------3-------3-------3-------------------------------------------|
D|----4---4---4---4---4---4---4---4---6/8-6---4/6-4-------------------------|
A|--2-------2-------2-------2-------6-------4-------------------------------|
E|--------------------------------------------------------------------------|


Bmaj7                            
Ты знаешь, мне
   D#m7             
Такие снятся вещи
    C#           Bmaj7  
Что если они вещие
                D#m7    C#
Нам гореть в огне
Bmaj7
Ты знаешь, мне
   D#m7
Порою снится поле
    C#
Где я сдаюсь без боя
Bmaj7            D#m7   C#
Я погибну на войне
     Bmaj7
Потому что
Есть такие вершины
D#m7            C#             Bmaj7                      
До которых мне и вовсе не дотянуться
                                  D#m7   
И если завтра мне не суждено проснуться
    C#              Bmaj7
Или я попаду под машину
                            D#m7   
Похорони меня на цветочном поле
          C#           Bmaj7
Не прикрывая иссохших век
                                  D#m7
Чтоб проросло из них хоть что-то, коли
            C#                   Bmaj7
Из меня не вырос счастливый человек

Bmaj7  D#m7  C# x2   

Ты знаешь, мне
Порою снится космос
Но он ведь не спасет нас
Мы будем на земле
Ты знаешь, мне
Влачиться в тесном теле
Что дышит еле-еле
Я хочу быть где-то вне
Потому
Что ни день, то замкнутый круг
И ты знаешь, мой даже не друг
Мне не распутать все нити
Потому
Что если вкратце, меня
Преследует чувство декорации
И ангел-похоронитель
И потому что
Есть такие вершины
До которых мне и вовсе не дотянуться
И если завтра мне не суждено проснуться
Или я попаду под машину
Похорони меня на цветочном поле
Не прикрывая иссохших век
Чтоб проросло из них хоть что-то, коли
Из меня не вырос счастливый человек
Наверх