Аккорды Das Lumpenpack - Professorenrap

Добавлено: @romashka
Дата добавления: 26 Марта 2024г.
Рейтинг:
0.0
Просмотров: 20
Транспонировать - +
[Riff]
     F                       G                            Am
e |----------------------------------------------------|--------------------------------------13----12------|
B |--10----------------10----------------------12------|--13-------10-------13----13----10------------------|
G |-----------10-------------12-------9----------------|----------------------------------------------------|
D |----------------------------------------------------|----------------------------------------------------|
A |----------------------------------------------------|----------------------------------------------------|
E |----------------------------------------------------|----------------------------------------------------|
     F                       G                            Am
e |----------------------------------------------------|----------------------------------------------------|
B |--10----------------10----------------------10-12---|--13-------10-------13----13-------10-------13------|
G |-----------10-------------12-------9----------------|----------------------------------------------------|
D |----------------------------------------------------|----------------------------------------------------|
A |----------------------------------------------------|----------------------------------------------------|
E |----------------------------------------------------|----------------------------------------------------|

[Intro]
F G Am
       Aha
F  G Am
  Ah Aha
F                G           Am
Wir betreten den Campus (Die Uni)
F                   G              Am
Früher  Mensa, heute Schampus (Champagner)
F                    G              Am
Wir  schneiden deinen Fernbus (brumm brumm)
F                     G             Am
Gibt viel das du noch lern musst (Haha)

[Verse 1]
F                    G
Du hältst dein Maul, ich Seminar
Am
Studiengebühren  nehm' ich schwarz und in Bar
F                       G
Du  fragst warum ich ein Tweed-Jacket trage
Am
Rate mal wo ich mein Weed versteckt habe
F                        G
Später  fährst du mich im Taxi zu mir
Am
Selbst daran schuld wer Geschichte studiert
        F              G
Mit dem Bachelor, dein Strahlen vor Glück
          Am
Ich mach' Patte und du zahlst BAföG zurück
F                      G
So  sieht sie aus die Elite des Landes
Am
Genauerer Blick, nur Lisas und Yannicks
F               G
Papa ist stolz, Mama macht Fotos
Am
Fick deine Zukunft, Mila macht Chorus

[Pre-Chorus]
F            G      Am                      F
Forscher und Lehrer, Porsche Carrera (brumm brumm)
                    G               Am
Ich korrigier auf Madeira (schwimm schwimm)
All deine Fehler

[Chorus]
F              G
Pro- Pro- Pro- Professorenrap
Am
Patches auf den Ellenbogen, Ellenbogen raus
F              G
Pro- Pro- Pro- Professorenrap
Am
Ich erklär Pythagoras, alle rasten aus
F                   G
Mit der Aktentasche durch das Gebäude
Am
Die Formel lautet: Wissen gleich Bräute
F              G
Pro- Pro- Pro- Professorenrap
Am
Du kaufst meine Bücher nicht, morgen bist du weg
F G                   Am
  Morgen bist du weg, ja (Hahaha whoo)
F G                   Am
  Morgen bist du weg, ja (Haha)

[Verse 2]
F                        G
Hab dich gestern auf ner Slackline gesehen
             Am
Nicht mal im Gleichgewicht wirst du den Bachelor bestehen
     F                          G
Dein Bier ist so teuer, du bist echt zu bedauern
     Am
Beim Empfang vom Dekan ist Non-Stop Happy Hour
    F                    G
Das Thema ist heute: "Es wird nicht gelabert"
      Am
Schau Netflix verdammt, der Dozent ist verkatert
F                     G
Du bittest mich deine Frist zu verlängern
      Am
Deine Freundin bittet mich, sie mit Wissen zu schwängern
F               G
Leben zerfetzt, wegen viel Stress
Am
Gestern auf Party, ekliges Becks
F                   G
Jetzt wieder Test: 3,6
Am
Ich MDMA du ECTS (brra)

[Pre-Chorus]
F            G      Am                      F
Forscher und Lehrer, Porsche Carrera (brumm brumm)
                    G               Am
Ich korrigier auf Madeira (schwimm schwimm)
All deine Fehler

[Chorus]
F              G
Pro- Pro- Pro- Professorenrap
Am
Patches auf den Ellenbogen, Ellenbogen raus
F              G
Pro- Pro- Pro- Professorenrap
Am
Ich erklär Pythagoras, alle rasten aus
F                   G
Mit der Aktentasche durch das Gebäude
Am
Die Formel lautet: Wissen gleich Bräute
F              G
Pro- Pro- Pro- Professorenrap
Am
Du kaufst meine Bücher nicht, morgen bist du weg
F G                   Am
  Morgen bist du weg, ja (brru ha)
F G                   Am
  Morgen bist du weg, ja (Haha)  
Наверх