Аккорды Daughter - Still

Добавлено: @romashka
Дата добавления: 30 Апреля 2018г.
Рейтинг:
0.0
Просмотров: 17
Транспонировать - +
Main Riff:
E-----------------------|
B-----------------------|
G--0--0--0-----2/4/2/4--|
D--2--0-----------------|
A--------3--------------|
E-----------------------|

Em               D           C 
I'll wrap up my bones and leave them
Em           D      C 
Out of this home out on the road

Em                    D 
Two feet standing on a principle
C 
Two hands longing for each others warmth
Em                         D 
Cold smoke seeping out of colder throats
C 
Darkness falling, leaves nowhere to go

Main Riff:
E-----------------------|
B-----------------------|
G--0--0--0-----2/4/2/4--|
D--2--0-----------------|
A--------3--------------|
E-----------------------|

Em            D         C 
It's spiraling down biting words like a wolf howling
Em                         D 
Hate is spitting out each others mouths
    C 
But we're still sleeping like we're lovers

Припев:
Em 
Still with feet touching
C 
Still with eyes meeting
D 
Still our hands match
D/F#              G 
Still with hearts beating    

Em 
Still with feet touching
C 
Still with eyes meeting
D 
Still our hands match
D/F#              G 
Still with hearts beating    

Em 
Still with feet touching
C 
Still with eyes meeting
D 
Still our hands match
D/F#              G 
Still with hearts beating    

Играется сразу после припева:
E--3------5------7----------------10-----------|
B--5------7------8----------------12-----------|
G----------------------------------------------|
D----------------------------------------------|
A----------------------------------------------|
E----------------------------------------------|

Em                      D 
Two feet standing on a principle
C 
Two hands digging in each other's wounds
Em                         D 
Cold smoke seeping out of colder throats
C 
Darkness falling, leaves nowhere to move

Em            D         C 
It's spiraling down biting words like a wolf howling
Em                         D 
Hate is spitting out each others mouths
    C 
But we're still sleeping like we're lovers

Припев:
Em 
Still with feet touching
C 
Still with eyes meeting
D 
Still our hands match
D/F#                  G 
Still with hearts beating    

Em 
Still with feet touching
C 
Still with eyes meeting
D 
Still our hands match
D/F#                  G 
Still with hearts beating    

Em 
Still with feet touching
C 
Still with eyes meeting
D 
Still our hands match
D/F#                  G 
Still with hearts beating    

Играется сразу после припева:
E--3------5------7----------------10-----------|
B--5------7------8----------------12-----------|
G----------------------------------------------|
D----------------------------------------------|
A----------------------------------------------|
E----------------------------------------------|

Em               D           C 
I'll wrap up my bones and leave them
Em           D      C 
Out of this home out on the road

Em                      D 
Two feet standing on a principle
C 
Two hands longing for each others warmth
Em                         D          C 
Cold smoke seeping out of colder throats
comments powered by Disqus
Наверх