Аккорды Дайте танк (!) - Ретро

Добавлено: @romashka
Дата добавления: 09 Октября 2020г.
Рейтинг:
0.0
Просмотров: 32
Транспонировать - +
Intro: E Gm A

E
Под порывами холодного ветра
Gm          A
Нету жанра, кроме ретро.
E
Под порывами холодного ветра
Gm          A
Нету жанра, кроме ретро.
E
Под порывами холодного ветра
Gm          A
Нету жанра, кроме ретро.
E
Под порывами холодного ветра
Gm            A
Нету жанра...

Outro:
  E           Gm  A
E|------0---------------
B|--------3-0-0-3---3---
G|--0-------------2---0-
D|2---2-----------------
A|----------------------
E|----------------------

  E           Gm      A
E|------0-----5-5-5-5-5-3-0-12
B|--------3-0-----------------
G|--0-------------------------
D|2---2-----------------------
A|----------------------------
E|----------------------------
Наверх