Аккорды «Dead Kennedys»

Dead Kennedys
Группа Dead Kennedys появилась в Сан-Франциско в 1978 когда вокалист Jello Biafra (настоящее имя - Eric Boucher) и басист Клаус Флорид ответили на объявление в журнале, размещённое гитаристом East Bay Ray. После чего к ним присоединился барабанщик Тэд, так была сформирована одна из самых известных хардкор-панк-групп 80-х. Результаты деятельности команды были экстраординарны. Биафра, воспитанный частично на брит-панке 70-х, частично на творчестве местных коллективов из Сан-Франциско типа "Crime"… Читать полностью... Группа Dead Kennedys появилась в Сан-Франциско в 1978 когда вокалист Jello Biafra (настоящее имя - Eric Boucher) и басист Клаус Флорид ответили на объявление в журнале, размещённое гитаристом East Bay Ray. После чего к ним присоединился барабанщик Тэд, так была сформирована одна из самых известных хардкор-панк-групп 80-х. Результаты деятельности команды были экстраординарны. Биафра, воспитанный частично на брит-панке 70-х, частично на творчестве местных коллективов из Сан-Франциско типа "Crime" и "Nuns", был законченный фронтмен. Его действия никогда нельзя было назвать безопасными: то он крыл матом свою аудиторию, то прыгал со сцены в толпу. Вот еще некоторые известные "проделки" Джелло: сначала он устроил себе свадьбу на кладбище, затем баллотировался на мэра Сан-Франциско (причем оказался на четвертом месте по результатам голосования), потом развел толпу, чтобы его раздели прямо на сцене. В своих текстах "Dead Kennedys" всегда находили уязвимые места в обществе. Ярким примером их сатиры является песня против нейтронной бомбы, "Kill The Poor". Дебютный сингл группы, "California Uber Alles", был посвящен "новой эре фашизма", процветавшего при губернаторе Калифорнии Джерри Брауне. Последовавший "Holiday In Cambodia", беспощадно пародировал шикарную жизнь студентов колледжа на фоне безразличия к страданию других людей, вызванному внешней политикой США. Несмотря на полное отсутствие в эфире, композиция группы "Too Drunk To Fuck" попала в британский Топ 40. После непродолжительного сотрудничества с американской "I.R.S. Records" и английской "Cherry Red Records" Биафра основал свой собственный лейбл "Alternative Tentacles Records", на котором стали также записываться коллеги-альтернативщики типа "TSOL", "D.O.A.", "NoMeansNo" и "Beatnigs". Тогда же из группы ушел Сесингер (основавший впоследствии "Wolverines"), так и не сумевший вписаться в музыкальную динамику "Dead Kennedys". Его заменил Даррен Пелигро (Даррен Хенли; экс-"Nubs", "Speedboys", "Hellations", "SSI"), игравший раньше на гитаре в "Jungle Studs" и даже успевший побарабанить в ранних "Red Hot Chili Peppers". Если дебютный альбом группы, "Fresh Fruit For Rotting Vegetables", был сделан в традиционном музыкальном формате, то на "In God We Trust, Inc." звучали некоторые элементы трэша. Диск "Plastic Surgery Disasters" хотя и не разделял непосредственности "Fresh Fruit", но содержал несколько ошеломляющих песен, таких как "Trust Your Mechanic", с типично апокалиптической подачей Биафры, напавшего на ценности сферы услуг, и "Well Paid Scientist", в которой Джелло издевался над карьеризмом. Альбом "Frankenchrist" был более продуманным со значительными композициями типа "Soup Is Good Food". Краеугольным камнем сессионных работ "Dead Kennedys" явилась "Stars And Stripes Of Corruption". Тему этого сингла Биафра потом постоянно использовал в своем сольном творчестве. Диск "Bedtime For Democracy" оказался последней студийной работой группы. На нем "Dead Kennedys" вернулись к агрессивной скорости предыдущего мини-альбома. После этого Биафра погряз в судебных разборках по поводу оформления "Frankenchrist". В конце концов, ему удалось оправдаться, но к тому времени группа практически распалась. Впоследствии Биафра имел эпизодическую сольную карьеру, отмеченную сотрудничеством с "D.O.A." и "NoMeansNo". Флорид выпустил три альбома на "Alternative Tentacles", а Ист Бэй Рэй основал проект "Scrapyard". Русский фан-сайт Dead Kennedys: http://deadkennedys.ru Скрыть...
Популярные аккорды Dead Kennedys:
алфавиту | просмотрам | случайно
  • INTRO:
    
    e: - 5 - - 6 - - - 8 -
    b: - 6 - - 7 - - - 9 -
    g: - 7 - - 8 - - -10 -
    d: - 7 - - 8 - - -10 -
    a: - 5 - - 6 - - - 8 -
    e: - 5 - - 6 - - - 8 -
    ...Dmin...D#min...Fmin
    
    Single notes (held) *play this twice*
    
    
    e: 5 5 5 -…
  • Tuning: EADGBE (Standard)
    
    
    E|------------16---151618161516-----15----
    B|--14--131416-----------------13-16------
    G|----------------------------------------
    D|----------------------------------------
    A|----------------------------------------
    E|----------------------------------------
    
    E|------------15---141516151415----15-----
    B|--14--131416-----------------14----13---
    G|----------------------------------------
    D|----------------------------------------
    A|----------------------------------------
    E|----------------------------------------…
  • Intro 
    
    	            Repeat 16x
    E---15--------|----------------|
    B---------13--|----------------|
    G---------------|.-----14----14-.|
    D---------------|.--------------.|
    A---------------|---12----12-----|
    E---------------|----------------|…
  • D
    Efficiency and progress is ours once more
    Bm
    Now that we have the Neutron bomb
         G                                        A    Asus A
    It's nice and quick and clean and gets things done
     D                  
    Away with…
  • 1st part x2                  2nd part x1
    e-----------------------     ----------------------------    
    b-----------------------     ---------------------------- 
    g----------------9999---     ----------12111111111111---
    d---1111-99-1111-9999---…
  • intro and verse...
    e-|---------------------------------|
    B-|---------------------------------|
    G-|-----7-5-----7-5-----7-5-----7-5-|
    D-|-5/7-7-5-7-7-7-5-5/7-7-5-7-7-7-5-|
    A-|-5/7-5-3-7-7-5-3-5/7-5-3-7-7-5-3-|
    E-|-3/5-----5-5-----3/5-----5-5-----|
    
    
    the…
  • Chorus
    
    D---------------------------------------------------------------------------
    G---------------------------------------------------------------------------
    A-22-0-2-0-2-0--------------------------------------------------------------
    E--------------4--5---------------------------------------------------------
    
    play…
  • x8
    G|--------------------------------------------------|
    D|--------------------------------------------------|
    A|-12-----------------1----------------------------|
    E|--------------------------------------------------|…
  • Tuning: Standard E Tuning
     
    e|------------------------------------------------------------|--------------|
    B|---Repeat this----------------------------------------------|--------------|
    G|--for some times--------------------------------------------|--Repeat…
  • G---------------------------------------------------|
    D----------4-5-4------------------------------------|
    A-55-4-55-------------------------------------------|
    E---------------------------------------------------|
  • intro
    e-|-------------------------------------------------------------------
    B-|--8-8-8-3-3-3--------------8-8-8-3-3-3-------------8-8-8-3-3-3-----
    G-|--7-7-7-2-2-2-5-5-5-7-7-7--7-7-7-2-2-2-5-5-5-7-7-7-7-7-7-2-2-2--4--
    D-|--5-5-5-0-0-0-5-5-5-7-7-7--5-5-5-0-0-0-5-5-5-7-7-7-5-5-5-0-0-0--4--
    A-|--------------3-3-3-5-5-5--------------3-3-3-5-5-5--------------2--
    E-|-------------------------------------------------------------------
    
    
    verse...
    e-|-----------------------------
    B-|-5-5-7-7-5-5-7-7-5-5-7-7-7-7-
    G-|-6-6-8-8-6-6-8-8-6-6-8-8-7-7-
    D-|-7-7-9-9-7-7-9-9-7-7-9-9-7-7-…
  • Drum part in the begining
    e|---3-------------------3---------------------3-333--00-22--3333-----3--------|
    B|---o-------------------0---------------------0-000--11-33--0000-----0--------|
    G|---0-------------------0---------------------0-000--00-22--0000--0000--------|
    D|---0-------------------0---------------------0-000--22-00--0000--0000--------|
    A|---2-------------------2---------------------2-222--33-----2222--0303--------|
    E|---3333-3333-3333-3333-3-3333-3333-3333-3333-3-333---------3333---222--------|
    
    
    The…
  • ---------------------------------
     ---------------------------------
     ---------------------------------
     -----3---------------3---5-3-----
     -5-----5-3---0-3-5-----5-----5-3-
     ---------------------------------
     
     The bar…
  • Verse 1
    
    G:---------------------------------------------------------------
    D:---------------------------------------------------------------
    A:---------------------------------------------------------------
    E:--0-0-3-0-0-3-0-3-0-0-3-0-0-3-0-0-3-0------------------
    just…
  • e| --------------------------------|
                B| --------------------------------|
                G| --------------------------------|
     riff A:    D| --------0-1-0---------0-----0---|
                A| 0---3-0-------3-0-0-3-----3---3-|…
  • -----------------------          -------------------------------
     1 -----------------------        2 -------------------------------
       ------------2-2--4-4---          ------------2-0------------2-2-
       ----2--2-2-------------…
  • verse:
    
    e-|--------------------------------------------
    B-|--------------------------------------------
    G-|--------------------8---------------------8-
    D-|-10-10-8-8-10-10-10-8--10-10-8-8-10-10-10-8-
    A-|-10-10-8-8-10-10-10-6--10-10-8-8-10-10-10-6-
    E-|--8--8-6-6--8--8--8-----8--8-6-6--8--8--8---
    repeat…
  • INTRO: (clean)
    e|----------------------------------------------------------
    b|---------------------------------------- 5 7 9 7 9 7 ----
    g|9 8 9 8 6 - 6--------------------------------------- 9 8 9 
    d|--------- 9 - 9 8 6/8…
  • Intro:
     
    (riff 1)
     
      D   A    D   A
     
    e -------- --------   (this may as well be played with totally different
    b 33--2--- 33--2---    fingering - I really don't know)
    g 22--2--- 22--2---
    d 00--2--- 00--2---
    a ----0--- ----0---
    e…
  • intro...
    e-|--------------|---------------|
    B-|--------------|---------------|
    G-|---7---7---7--|---7---7---7---|
    D-|-6-7-6-7-6-7--|-6-7-6-7-6-7-6-|
    A-|-6-5-6-5-6-5--|-6-5-6-5-6-5-6-|
    E-|-4---4---4----|-4---4---4---4-|
    
    e-|--------------------------------------------|
    B-|--------------------------------------------|
    G-|-7-7--9-9-11-11-11-11-7-7--9-9-11-11-11-11--|
    D-|-7-7--9-9-11-11-11-11-7-7--9-9-11-11-11-11--|
    A-|-5-5--7-7--9--9--9--9-5-5--7-7--9--9--9--9--|
    E-|--------------------------------------------|
    all…
  • intro x4               verse             fill x2
    e-|--------------|----------------------|------------------------------------|
    B-|--------------|----------------------|------------------------------------|
    G-|----------6---|--7-------7-------9---|--6---8-------6---8-------6---9-----|
    D-|--5---7---6---|--7---7---7---7---9---|--6---8---7---6---8---7---6---9---8-|
    A-|--5---7---4---|--5---7---5---7---7---|--4---6---7---4---6---7---4---7---8-|
    E-|--3---5-------|------5-------5-------|----------5-----------5-----------6-|
    
    
    2nd…
  • e-|-----------------------------------------------------------------|
    B-|-----------------------------------------------------------------|
    G-|-----------------------------------------------------------------|
    D-|-----------------------------------------------------------------|
    A-|-5-5-8-8-5-5-8-8-5-5-8-8-5-5-8-8-5-5-8-8-5-5-8-8-5-5-8-8-5-5-8-8-|
    E-|-3-3-6-6-3-3-6-6-3-3-6-6-3-3-6-6-3-3-6-6-3-3-6-6-3-3-6-6-3-3-6-6-|
    
    
    e-|-----------------------------------------------------------------
    B-|-----------------------------------------------------------------
    G-|-----------------------------------------------------------------
    D-|-----------------------------------------------------------------
    A-|-----------------------------------------------------------------
    E-|-4-4-7-7-4-4-7-7-4-4-7-7-4-4-7-7-3-3-6-6-3-3-6-6-3-3-6-6-3-3-6-6-
    
    
    e-|-----------------------------------------------------------------|
    B-|-----------------------------------------------------------------|
    G-|-----------------------------------------------------------------|
    D-|-----------------------------------------------------------------|
    A-|-----------------------------------------------------------------|
    E-|-4-4-7-7-4-4-7-7-4-4-7-7-4-4-7-7-3-3-6-6-3-3-6-6-3-3-6-6-3-3-6-6-|
    
    
    e-|-----------------------------------------------------------------|
    B-|-----------------------------------------------------------------|
    G-|-----------------------------------------------------------------|
    D-|-----------------------------------------------------------------|
    A-|-9-9-9-9-9-9-9-9-8-8-8-8-8-8-8-8-9-9-9-9-9-9-9-9-8-8-8-8-8-8-8-8-|
    E-|-7-7-7-7-7-7-7-7-6-6-6-6-6-6-6-6-7-7-7-7-7-7-7-7-6-6-6-6-6-6-6-6-|
    
    
    e-|-----------------------------------------------------------------
    B-|-----------------------------------------------------------------
    G-|-----------------------------------------------------------------
    D-|-----------------------------------------------------------------
    A-|-----------------------------------------------------------------
    E-|-4-4-7-7-4-4-7-7-4-4-7-7-4-4-7-7-3-3-6-6-3-3-6-6-3-3-6-6-3-3-6-6-
    
    
    e-|-----------------------------------------------------------------|
    B-|-----------------------------------------------------------------|
    G-|-----------------------------------------------------------------|
    D-|-----------------------------------------------------------------|
    A-|-----------------------------------------------------------------|
    E-|-4-4-7-7-4-4-7-7-4-4-7-7-4-4-7-7-3-3-6-6-3-3-6-6-3-3-6-6-3-3-6-6-|
    
    
    e-|-----------------------------------------------------------------
    B-|-----------------------------------------------------------------
    G-|-----------------------------------------------------------------
    D-|-----------------------------------------------------------------
    A-|-9-9-9-9-9-9-9-9-8-8-8-8-8-8-8-8-9-9-9-9-9-9-9-9-8-8-8-8-8-8-8-8-
    E-|-7-7-7-7-7-7-7-7-6-6-6-6-6-6-6-6-7-7-7-7-7-7-7-7-6-6-6-6-6-6-6-6-
    
    
    e-|-----------------------------------------------------------------|
    B-|-----------------------------------------------------------------|
    G-|-----------------------------------------------------------------|
    D-|-7-7-7-7-7-7-7-7-5-5-5-5-5-5-5-5-4-4-4-4-4-4-4-4-3-3-3-3-3-3-3-3-|
    A-|-5-5-5-5-5-5-5-5-3-3-3-3-3-3-3-3-2-2-2-2-2-2-2-2-1-1-1-1-1-1-1-1-|
    E-|-----------------------------------------------------------------|
    
    
    e-|---------------------------------|
    B-|---------------------------------|
    G-|---------------------------------|
    D-|---------------------------------|
    A-|-5-5-8-8-5-5-8-8-5-5-8-8-5-5-8-8-|
    E-|-3-3-6-6-3-3-6-6-3-3-6-6-3-3-6-6-|
    
    
    e-|-----------------------------------------------------------------
    B-|-----------------------------------------------------------------
    G-|-----------------------------------------------------------------
    D-|-----------------------------------------------------------------
    A-|-----------------------------------------------------------------
    E-|-4-4-7-7-4-4-7-7-4-4-7-7-4-4-7-7-3-3-6-6-3-3-6-6-3-3-6-6-3-3-6-6-
    
    
    e-|-----------------------------------------------------------------|
    B-|-----------------------------------------------------------------|
    G-|-----------------------------------------------------------------|
    D-|-----------------------------------------------------------------|
    A-|-----------------------------------------------------------------|
    E-|-4-4-7-7-4-4-7-7-4-4-7-7-4-4-7-7-3-3-6-6-3-3-6-6-3-3-6-6-3-3-6-6-|
    
    
    e-|-----------------------------------------------------------------
    B-|-----------------------------------------------------------------
    G-|-----------------------------------------------------------------
    D-|-----------------------------------------------------------------
    A-|-9-9-9-9-9-9-9-9-8-8-8-8-8-8-8-8-9-9-9-9-9-9-9-9-8-8-8-8-8-8-8-8-
    E-|-7-7-7-7-7-7-7-7-6-6-6-6-6-6-6-6-7-7-7-7-7-7-7-7-6-6-6-6-6-6-6-6-
    
    
    e-|-----------------------------------------------------------------|
    B-|-----------------------------------------------------------------|
    G-|-----------------------------------------------------------------|
    D-|-7-7-7-7-7-7-7-7-5-5-5-5-5-5-5-5-4-4-4-4-4-4-4-4-3-3-3-3-3-3-3-3-|
    A-|-5-5-5-5-5-5-5-5-3-3-3-3-3-3-3-3-2-2-2-2-2-2-2-2-1-1-1-1-1-1-1-1-|
    E-|-----------------------------------------------------------------|
    
    
    e-|---------------------------------|
    B-|---------------------------------|
    G-|---------------------------------|
    D-|---------------------------------|
    A-|-5-5-8-8-5-5-8-8-5-5-8-8-5-5-8-8-|
    E-|-3-3-6-6-3-3-6-6-3-3-6-6-3-3-6-6-|
    
    
    e-|------------------------------------------------------------------------
    B-|-12-12-12-12-12-12-10---------------------------------------------------
    G-|----------------------12-11-11-11-11-11-11-11-9-11-12-12-12-12-12-12-14-
    D-|------------------------------------------------------------------------
    A-|------------------------------------------------------------------------
    E-|------------------------------------------------------------------------
    
    
    e-|------------------------------------------------------------------------
    B-|-------------------------12-12-12-12-12-12-10---------------------------
    G-|-11-11-11-11-11-11-11-11----------------------12-11-11-11-11-11-11-11-9-
    D-|------------------------------------------------------------------------
    A-|------------------------------------------------------------------------
    E-|------------------------------------------------------------------------
    
    
    e-|-------------------------------|
    B-|-------------------------13-12-|
    G-|-11-12-12-12-12-12-12-12-------|
    D-|-------------------------------|
    A-|-------------------------------|
    E-|-------------------------------|
    
    
    e-|-----------------------------------------------------------------
    B-|-----------------------------------------------------------------
    G-|-----------------------------------------------------------------
    D-|-----------------------------------------------------------------
    A-|-----------------------------------------------------------------
    E-|-4-4-7-7-4-4-7-7-4-4-7-7-4-4-7-7-3-3-6-6-3-3-6-6-3-3-6-6-3-3-6-6-
    
    
    e-|-----------------------------------------------------------------|
    B-|-----------------------------------------------------------------|
    G-|-----------------------------------------------------------------|
    D-|-----------------------------------------------------------------|
    A-|-----------------------------------------------------------------|
    E-|-4-4-7-7-4-4-7-7-4-4-7-7-4-4-7-7-3-3-6-6-3-3-6-6-3-3-6-6-3-3-6-6-|
    
    
    e-|---------------------------------------------------|
    B-|---------------------------------------------------|
    G-|---------------------------------------------------|
    D-|---------------------------------------------------|
    A-|-9-9-9-9-9-9-9-9-8-8-8-8-8-8-8-8-9-9-9-9-9-9-9-9-8-|
    E-|-7-7-7-7-7-7-7-7-6-6-6-6-6-6-6-6-7-7-7-7-7-7-7-7-6-|
    
    
    e-|--------------------------------------------|
    B-|--------------------------------------------|
    G-|--------------------------------------------|
    D-|--------------------------------------------|
    A-|-5-5-8-8-5--5-5-8-8-5--5-5-8-8-5--5-5-8-8-2-|
    E-|-3-3-6-6-3--3-3-6-6-3--3-3-6-6-3--3-3-6-6-0-|…
  • e------------------------------------------------------------------------
    B------------------------------------------------------------------------
    G----------5-5-5-5----------5-5-5-5---------5-5-5-5---------6-6----------
    D-8-8--6-6-5-5-5-5-8-8--6-6-5-5-5-5-8-8-6-6-5-5-5-5-8-8-6-6-6-6-7-7------
    A-8-8--6-6-3-3-3-3-8-8--6-6-3-3-3-3-8-8-6-6-3-3-3-3-8-8-6-6-4-4-7-7------
    E-6-6--4-4---------6-6--4-4---------6-6-4-4---------6-6-4-4-----5-5------…
  • Tempo: 320
     
     
     Repeat x2:
     
        Db                             Bb
     E--------------------------|
     B--------------------------|
     G|-10----10----10----10---|-10----7--7--------7--5-|
     D|-11----11----11----11---|-11----8--8--------8--6-|…
  • intro/main part
    
    G:------------------------------------------------
    D:------------------------------------------------
    A:------------------------------------------------
    E:-0-0-0-0-0-0-444-3-33333-44---------
    
  • Opening Part:
    e|----------------------------------------------------|
    B|----------------------------------------------------|
    G|--------4-----------4------------4--------------4---|
    D|---4-4--4------4-4--4-------4-4--4---------4-4--4---|
    A|---2-2--2------2-2--2-------2-2--2---------2-2--2---|
    E|----------------------------------------------------|…
  • Intro
    
    e--------------------------------------------------------------
    B--------------------------------------------------------------
    G--------------------------------------------------------------
    D9-------9--7--------7--8--9---9-7-------7-8-------------------play…
  • Verse:
    e-|------------------------------------------------------|
    B-|------------------------------------------------------|
    G-|-------------------4-4-2-2--------------------4-4-2-2-|
    D-|-4-4-4-2-2-2-4-4-4-4-4-2-2--4-4-4-2-2-2-4-4-4-4-4-2-2-|
    A-|-4-4-4-2-2-2-4-4-4-2-2-0-0--4-4-4-2-2-2-4-4-4-2-2-0-0-|
    E-|-2-2-2-0-0-0-2-2-2----------2-2-2-0-0-0-2-2-2---------|
    
    
    Chorus:
    e-|-----------------------------------------------------------|
    B-|-----------------------------------------------------------|
    G-|---------------------------------------------------4-4-2-2-|
    D-|-9-9-9-9-9-9-9-9-7-7-7-7-7-7-7-7-4-4-4-2-2-2-4-4-4-4-4-2-2-|
    A-|-9-9-9-9-9-9-9-9-7-7-7-7-7-7-7-7-4-4-4-2-2-2-4-4-4-2-2-0-0-|
    E-|-7-7-7-7-7-7-7-7-5-5-5-5-5-5-5-5-2-2-2-0-0-0-2-2-2---------|
    
    
    e-|------------------------------------------------------------|
    B-|------------------------------------------------------------|
    G-|------------------------------------------------------------|
    D-|-9-9-9-9-9-9-9-9-7-7-7-7-7-7-7-7-11-11-11-11-11-11-11-11-11-|
    A-|-9-9-9-9-9-9-9-9-7-7-7-7-7-7-7-7-11-11-11-11-11-11-11-11-11-|
    E-|-7-7-7-7-7-7-7-7-5-5-5-5-5-5-5-5--9--9--9--9--9--9--9--9--9-|
    
    
    e-|-----------|
    B-|-----------|
    G-|-----------|
    D-|-11-11-11--|
    A-|-11-11-11--|
    E-|--9--9--9--|
    
    
    after…
  • e-|-------------|-------------------------------------|
    B-|-------------|-------------------------------------|
    G-|-4-4-6-6-4-4-|-6-6-6-6-4-4-4-4-6-6-6-6-4-4-4-9-9-6-|
    D-|-4-4-6-6-4-4-|-6-6-6-6-4-4-4-4-6-6-6-6-4-4-4-9-9-6-|
    A-|-2-2-4-4-2-2-|-4-4-4-4-2-2-2-2-4-4-4-4-2-2-2-7-7-4-|
    E-|-------------|-------------------------------------|
    
    e-|-----------------------------------------------------
    B-|-----------------------------------------------------
    G-|-----------------------------------------------------
    D-|-4-4-4-7-4-4-4-4-4-7-4-4-7-7-----9-9-----4-4-4-7-4-4-
    A-|-2-2-2-5-2-2-2-2-2-5-2-2-5-5-7-7-7-7-7-7-2-2-2-5-2-2-
    E-|-----------------------------5-5-----5-5-------------
    
    e-|-----------------------------------------------------|
    B-|-----------------------------------------------------|
    G-|-----------------------------------------------------|
    D-|-4-4-4-7-4-4-4-4-4-7-4-4-7-7-----9-9-----4-4-4-7-4-4-|
    A-|-2-2-2-5-2-2-2-2-2-5-2-2-5-5-7-7-7-7-7-7-2-2-2-5-2-2-|
    E-|-----------------------------5-5-----5-5-------------|
    
    e-|---------------------------------------------|
    B-|---------------------------------------------|
    G-|---------------------------------------------|
    D-|---------7-7---------7-7---------7-7---------|
    A-|-7-9-9-7-5-5-9-7-7-9-5-5-7-9-9-7-5-5-9-7-7-9-|
    E-|-5-7-7-5-----7-5-5-7-----5-7-7-5-----7-5-5-7-|
    
    e-|---------------------------------------------------------------|
    B-|---------------------------------------------------------------|
    G-|---------------------------------------------------------------|
    D-|---------------------------------------------------------------|
    A-|-9-9-9-9-9-9-9-8-7-7-7-7-7-7-7-6-5-5-5-5-5-5-5-6-7-7-7-7-7-7-7-|
    E-|-7-7-7-7-7-7-7-6-5-5-5-5-5-5-5-4-3-3-3-3-3-3-3-4-5-5-5-5-5-5-5-|
    
    e-|-----------------------------------------------------|
    B-|-----------------------------------------------------|
    G-|-----------------------------------------------------|
    D-|-4-4-4-7-4-4-4-4-4-7-4-4-7-7-----9-9-----4-4-4-7-4-4-|
    A-|-2-2-2-5-2-2-2-2-2-5-2-2-5-5-7-7-7-7-7-7-2-2-2-5-2-2-|
    E-|-----------------------------5-5-----5-5-------------|
    
    e-|---------------------|
    B-|---------------------|
    G-|---------------------|
    D-|---------7-7---------|
    A-|-7-9-9-7-5-5-9-7-7-9-|
    E-|-5-7-7-5-----7-5-5-7-|
    
    e-|-14-13-12-12-14-13-12-12-14-13-12-12-14-13-12-12--12-11-10-10-12-11-10-10-
    B-|--------------------------------------------------------------------------
    G-|--------------------------------------------------------------------------
    D-|--------------------------------------------------------------------------
    A-|--------------------------------------------------------------------------
    E-|--------------------------------------------------------------------------
    
    e-|-12-11-10-10-12-11-10-10--14-13-12-12-14-13-12-12-14-13-12-12-14-13-12-12-
    B-|--------------------------------------------------------------------------
    G-|--------------------------------------------------------------------------
    D-|--------------------------------------------------------------------------
    A-|--------------------------------------------------------------------------
    E-|--------------------------------------------------------------------------
    
    e-|-12-11-10-10-12-11-10-10-12-11-10-10-12-11-10-10-14-13-12-12-14-13-12-12-
    B-|-------------------------------------------------------------------------
    G-|-------------------------------------------------------------------------
    D-|-------------------------------------------------------------------------
    A-|-------------------------------------------------------------------------
    E-|-------------------------------------------------------------------------
    
    e-|-12-11-10-10-12-11-10-10-14-13-12-12-14-13-12-12-12-11-10-10-12-11-10-10-
    B-|-------------------------------------------------------------------------
    G-|-------------------------------------------------------------------------
    D-|-------------------------------------------------------------------------
    A-|-------------------------------------------------------------------------
    E-|-------------------------------------------------------------------------
    
    e-|-14-13-12-12-14-13-12-12--12-11-10-10-12-11-10-10----------------|
    B-|-----------------------------------------------------------------|
    G-|-----------------------------------------------------------------|
    D-|--------------------------------------------------11-11-11-11-14-|
    A-|---------------------------------------------------9--9--9--9-12-|
    E-|-----------------------------------------------------------------|
    
    e-|-------------------------------------------------------------
    B-|-------------------------------------------------------------
    G-|-------------------------------------------------------------
    D-|-6-6-6-6-9-6-6-6-6-6-6-9-6-6-9-9-----11-11-----6-6-6-6-9-6-6-
    A-|-4-4-4-4-7-4-4-4-4-4-4-7-4-4-7-7-9-9--9--9-9-9-4-4-4-4-7-4-4-
    E-|---------------------------------7-7-------7-7---------------
    
    e-|-------------------------------------------------------------|
    B-|-------------------------------------------------------------|
    G-|-------------------------------------------------------------|
    D-|-6-6-6-6-9-6-6-6-6-6-6-9-6-6-9-9-----11-11-----6-6-6-6-9-6-6-|
    A-|-4-4-4-4-7-4-4-4-4-4-4-7-4-4-7-7-9-9--9--9-9-9-4-4-4-4-7-4-4-|
    E-|---------------------------------7-7-------7-7---------------|
    
    e-|-----------------------------------------------------|
    B-|-----------------------------------------------------|
    G-|-----------------------------------------------------|
    D-|-----------9-9-----------9-9-----------9-9-----------|
    A-|-9-11-11-9-7-7-11-9-9-11-7-7-9-11-11-9-7-7-11-9-9-11-|
    E-|-7--9--9-7------9-7-7--9-----7--9--9-7------9-7-7--9-|
    
    e-|------------------------------------------------------------------
    B-|------------------------------------------------------------------
    G-|------------------------------------------------------------------
    D-|------------------------------------------------------------------
    A-|-11-11-11-11-11-11-11-10-9-9-9-9-9-9-9-10-11-11-11-11-11-11-11-10-
    E-|--9--9--9--9--9--9--9--8-7-7-7-7-7-7-7--8--9--9--9--9--9--9--9--8-
    
    e-|-----------------------------------------------------------------------
    B-|-----------------------------------------------------------------------
    G-|-----------------------------------------------------------------------
    D-|-----------------9-9-----11-11-----9-9-----11-11-----9-9-----11-11-----
    A-|-9-9-9-9-9-9-9-9-7-7-9-9--9--9-9-9-7-7-9-9--9--9-9-9-7-7-9-9--9--9-9-9-
    E-|-7-7-7-7-7-7-7-7-----7-7-------7-7-----7-7-------7-7-----7-7-------7-7-
    
    e-|----------|
    B-|----------|
    G-|----------|
    D-|----------|
    A-|-11-11-11-|
    E-|--9--9--9-|…
  • e-|-12--12----12--12-|-12-12-12-12-12-12-12-12-16-16-16-------------------
    B-|-12-----12-----12-|----------------------------------14-14-14-14-14-14-
    G-|-13---------------|----------------------------------------------------
    D-|-14---------------|----------------------------------------------------
    A-|------------------|----------------------------------------------------
    E-|------------------|----------------------------------------------------
    
    e-------------|-12-12-12-12-12-12-12-12-12-12-16-16-------------------|---
    B-14-14-14-14-|-------------------------------------13-13-13-12-12-12-|---
    G-------------|-------------------------------------------------------|---
    D-------------|-------------------------------------------------------|---
    A-------------|-------------------------------------------------------|---
    E-------------|-------------------------------------------------------|---
    
    e-|-19-19-16-17p16----16-19-16-17p16-----|--------------------------------
    B-|----------------17--------------------|--------------------------------
    G-|----------------------------------19--|-9-9-----9-------9--9--9--------
    D-|--------------------------------------|-9-9---9---9---9----------------
    A-|--------------------------------------|-7-7-7-------7------------------
    E-|--------------------------------------|--------------------------------…
Наверх