Аккорды «Deftones»

Deftones
В 1988 году трое студентов высшей школы из Сакраменто, Стивен Карпентер (гитара), Эйб Каннингхэм (ударные) и Чино Морено (вокал), начали устраивать совместные джемы. Басисты на первых порах менялись довольно часто, и лишь с появлением Чи Ченга четырехструнная вакансия была закрыта. В начале своей карьеры квартет ориентировался на традиционный хэви, но с наступлением 90-х к обычному металлу стали примешиваться влияния «The Cure», «Tool», «Rage Against The Machine» и «Faith No More». В течение… Читать полностью... В 1988 году трое студентов высшей школы из Сакраменто, Стивен Карпентер (гитара), Эйб Каннингхэм (ударные) и Чино Морено (вокал), начали устраивать совместные джемы. Басисты на первых порах менялись довольно часто, и лишь с появлением Чи Ченга четырехструнная вакансия была закрыта. В начале своей карьеры квартет ориентировался на традиционный хэви, но с наступлением 90-х к обычному металлу стали примешиваться влияния «The Cure», «Tool», «Rage Against The Machine» и «Faith No More». В течение нескольких лет группа гастролировала, пытаясь заключить контракт с каким-нибудь лейблом. Коллектив наконец-то привлек внимание представителей «Maverick Records», и в октябре 1995-го этот лейбл выпустил дебютник «Deftones» — «Adrenaline». Спродюсированный Терри Дэйтом («Metal Church», «Soundgarden», «Pantera») альбом имел относительно скромный успех, и поэтому команде пришлось поднимать свою популярность по старинке — с помощью бесконечных концертов. Настоящий успех группу ждал после выхода второго альбома — «Around the Fur». Благодаря хитам «My Own Summer (Shove It)» и «Be Quiet And Drive (Far Away)» группе удалось занять свое место в ню-металлической лиге. С выходом альбома «White Pony» звучание команды заметно изменилось, и в ее прежний стиль звучания влились компоненты, позаимствованные у «Cure», «Smiths» и «My Bloody Valentine».Альбом стал платиновым, а за песню «Elite» группе вручена «Grammy» (в номинации «Best Metal Performance»). Одноименный диск «Deftones» вышел в свет в мае 2003 года. Диск получился достаточно разноплановым, и наряду с тяжелыми боевиками в него вошли трип-хоповые вещи типа «Lucky You» и печальные номера вроде «Anniversary of an Uninteresting Event». Осенью 2006-го вышел «Saturday Night Wrist». Диск получился еще более экспериментальным чем раннее творчество. В конце 2007-го Deftones приступили к подготовке пластинки с рабочим названием «Eros», но из-за того что Чи Ченг серьезно пострадал в автомобильной аварии, запись была отложена на неопределенный срок. Временно на его место был принят Серджио Вега (Quicksand), группа бросила все силы на новый альбом «Diamond Eyes», который увидел свет в мае 2010 года. C «Diamond Eyes» вышло четыре сингла — «Rocket Skates», «Diamond Eyes», «Sextape» и «You’ve Seen The Butcher» . На все синглы были сняты клипы. 16 апреля 2011 года в честь Record Store Day вышел официальный сборник Covers. На него попали песни, уже выходившие на сборнике B-Sides and Raritets, а также треки из цифровых изданий альбомов Saturday Night Wrist и Diamond Eyes. В августе 2011 года вышел пятый и последний клип на песню с альбома Diamond Eyes — «Beauty School». Видео представляет собой нарезку кадров с выступлений группы в турне, посвящённом альбому Diamond Eyes в 2010—2011 годах. В сентябре 2011 года группа завершает своё двухлетнее турне концертами в Санкт-Петербурге и Москве. В сентябре группа берет небольшой отпуск, а после, уже в конце 2011 года снова отправится в студию для записи седьмого студийного альбома. 25 октября 2011 года вышла коллекция всех альбомов Deftones на винилах тиражом 1 000 копий под названием The Vinyl Collection 1995—2011. В неё вошли все альбомы группы, начиная с Adrenaline (1995) и заканчивая сборником Covers (2011). В 2012 году группа выпускает свою новую пластинку Koi No Yokan. 13 апреля 2013 года после продолжительной пятилетней комы умирает басист группы Чи Ченг. Соболезнование выразили известные музыкальные деятели, такие как Slash, Кори Тейлор, Skrillex, Duran Duran, Korn и другие. 8 апреля 2016 года группа выпускает долгожданный альбом Gore. Состав: Camillo Wong Moreno („Chino“) — вокал, гитара Stephen Robert Carpenter („Stef“) — гитара,клавишные,бас,барабаны Chi Ling Dai Cheng — бас Abraham Cunningham („Abe“) — барабаны Frank Delgado — вертушки,клавишные Дискография: Adrenaline - 1995 Around the Fur - 1997 White Pony - 2000 Deftones - 2003 B-Sides & Rarities - 2005 Saturday Night Wrist - 2006 Diamond Eyes - 2010 Koi No Yokan - 2012 Smile (Single) - 2014 Gore - 2016 Скрыть...
Популярные аккорды Deftones:
алфавиту | просмотрам | случайно
  • intro:
    low phaser effects...
    
    Verse: x8              *fast*    *fast*     8th verse
    G|----------------------------------------*|------------
    D|-----------------------------------------|------------
    A|-----------------------------------------|------------
    D|-0--000--00--0000--9--99h109-9-9-9h1099-*|-99-7-9-7---…
  • Riff 1 Intro
    E||--------------------------||    Bass Riff
    B||-----------11-11-11-11-11-||
    G||--10-10-10-10-10-10-10-10-||--------------------------||
    D||-----------------------8--||--------------------------||
    A||--------------------------||--------------------------||
    D||--------------------------||-----------------||
    
    
    Riff…
  • Tuning: G# Eb Ab Db Gb Bb 
    (1/2 step down...G# 1 1/2 step down from standard B)
    
    
    Intro
    Bb--------------3---5-3---------------------------------
    Gb---------0-------------0---0---0---0------------------
    Db----4------4---4--------4---4---4---4-0-0-------------
    Ab-2----2-----------------------------------------------
    Eb------------------------------------------------------
    G#------------------------------------------------------
    
    
    Verses
    Bb------------------------------------------------------
    Gb------------------------------------------------------
    Db--9-------------------------------12------------------
    Ab--x-play…
  • Tuned to Drop C (C-G-C-F-A-D) (Drop D and one Whole Step Down).
    
    
    Intro (minor distortion)
    
    D|-------------------------------------------------|
    A|-------------------------------------------------|
    F|--10-10-10-10-10-10-10-10-10-10-10-10-10-10-10---|
    C|-------------------------------------------------|
    G|--8--8--8--8--8--8--8--8--8--8--8--8--8--8--8--0-|
    C|--0--0--0--0--0--0--0--0--0--0--0--0--0--0--0--0-|
    
    
    D|-------------------------------------------------|
    A|-------------------------------------------------|
    F|-------8-8-8-7-7-7-8-8-8-8-7---------------------|
    C|-------5-5-5-5-5-5-5-5-5-5-5-5-5-----------------|
    G|-5-5-5-----------------------5-5-----------------|
    C|-5-5-5-----------------------5-5-----------------|
    
    
    Chorus…
  • verse riff 1
    e|------------------|
    g|------------------|
    b|------------------|
    D|-(2-2-2--1--2--1)-|
    A|--2-2-2--1--2--1--|
    D|--2-2-2--1--2--1--|
    
    
    chorus riff 
    e|--------------------------------------|
    g|--------------------------------------|
    b|--------------------------------------|
    D|--6--6-6---2--2-2---1--1-1--1-1--1-1--|
    A|--6--6-6---2--2-2---1--1-1--1-1--1-1--|
    D|--6--6-6---2--2-2---1--1-1--1-1--1-1--|
    
    
    bridge…
  • Main Riff:
    
    G|---------------------------||
    D|---------------------------||
    A|--------4-------4----------||
    E|-5-4--5---5-4-5---4-2-2-2--||  x8
    
    
    Verse Riff:
    
    G|-----------||
    D|-----------||
    A|-----------||
    E|-3-3--3-3--||…
  • Riff A
    Eb|---------------------------------| x8
    Bb|---------------------------------|
    Gb|---------------------------------|
    Db|---------------------------------|
    Ab|---------------------------------|
    Db|0-11-12-0-11-8-0-8-0-8-7-0-8-5---|
    
    
    Chorus…
  • TUNING: tune your guitar to drop d (D,A,D,G,B,E)
    
    
         RIFF 1:
    
        E|--------------------------|    Bass Riff
        B|--------------------------|
        G|--------------------------|------------------|
        D|--9-9-999-9---9-9-999-9---|--0^2…
  • Tuning: (CGCFAD)
    / = slide
    ^ = bend
    
    
    D|--------------------------------|
    A|--------------------------------|
    F|--------------------------------|
    C|7--77-7--7----------------------|  X4
    G|4--40-4--0----------------------|
    C|4--40-4--0----------------------|
    
    D|--------------------------------|
    A|--------------------------------|
    F|11--11-14---17-16---------------|
    C|--------------------------------|…
  • Intro/Chorus Ending
    C#|-0--0--0--0----|
    G#|-0--0--0--0----|
    E |-4--4--4--4----|
    B |-2--2--2--2----|
    F#|-0--0--0--0----|
    C#|-0--0--0--0----|
    G#|---------------|
    
    
    Verse
    C#|------------------------------------0-0-0-0-0-0-0-0-0-0-0-----------------|
    G#|------------------------------------0-0-0-0-0-0-0-0-0-0-0-----------------|
    E…
  • No Bass X2
    
    G||----------------------------------------||
    D||----------------------------------------||
    A||----------------------------------------||
    E||--3---------3----------333333-44-33333--||
    B||-----4--41----4--41-------------------||…
  • Drop C
    C G C F A D
    
    
    intro changes from 4/4 to 3/4
    
    Fig. 1
    
    d-7-------7--------------------------------7------------------
    a-x-7-7-7-x-7-7-7-7-7-7-77-----------6-7-7-x-7-7-77-----------
    f-4-------4-x-x-x-x-x-x-xx-6-7-6-7---3-x-x-4-x-x-xx-6-7-6-7---
    c---4-4-4---4-4-4-4-4-4-44---0---0---3-4-4---4-4-44---0---0---
    g--------------------------4-0-4-0-0----------------4-0-4-0---
    c--------------------------4-0-4-0-0----------------4-0-4-0---
    
    d---------7------------------------7--------------------------
    a---6-7-7-x-7-7-77-----------6-7-7-x-7-7-77-------------------
    f---3-x-x-4-x-x-xx-6-7-6-7---3-x-x-4-x-x-xx-6-7-6-7-----------
    c---3-4-4---4-4-44---0---0---3-4-4---4-4-44---0---0-----------
    g-0----------------4-0-4-0-0----------------4-0-4-0-----------
    c-0----------------4-0-4-0-0----------------4-0-4-0-----------
    
    d---------7------------------------7--------------------------
    a---6-7-7-x-7-7-77-----------6-7-7-x-7-7-77-------------------
    f---3-x-x-4-x-x-xx-6-7-6-7---3-x-x-4-x-x-xx-6-7-6-7-----------
    c---3-4-4---4-4-44---0---0---3-4-4---4-4-44---0---0-----------
    g-0----------------4-0-4-0-0----------------4-0-4-0-----------
    c-0----------------4-0-4-0-0----------------4-0-4-0-----------
    
    gtr…
  • Standard Tuned Bass
     
    
     Intro
     G-------|
     D-------|
     A-------|
     E-00-00-|
    
    
     Main Riff
     G--------------------------------------------|
     D----22-------00-----------------------------|
     A-------22-33----33-22-----------------------|…
  • Intro
    
    C#|-0-0-0-0-0-0-0-0-----------0-0-0-0-0-0-0-0-0-0-0-0-0-0-0-0----------------|
    G#|-0-0-0-0-0-0-0-0-----------0-0-0-0-0-0-0-0-0-0-0-0-0-0-0-0----------------|
    E |-x-x-x-x-x-x-x-x-----------x-x-x-x-x-x-x-x-x-x-x-x-x-x-x-x----------------|
    B…
  • tunning: drop c 1 1/2 steps
    
    
    Riff 1 (play this 4 times)
    
    d-----------------------------------------------------------
    a-----------------------------------------------------------
    f-----------------------------------------------------------
    c-0-2-0-2-3-2-0-2-0-2-0-2-3-2-0-2-0-2-0-2-3-2-0-2-0-3-3-0-8-
    g-0-2-0-2-3-2-0-2-0-2-0-2-3-2-0-2-0-2-0-2-3-2-0-2-0-3-3-0-8-
    c-0-2-0-2-3-2-0-2-0-2-0-2-3-2-0-2-0-2-0-2-3-2-0-2-0-3-3-0-8-
    
    then…
  • intro|------------------------------------------------
         |------------------------------------------------
         |------------------------------------------------
         |----8----------10^-------7-----5---7p7--8---7--4…
  • Tuning: Db,Ab,Db,Gb,Bb,Eb
    
    
    Intro (clean)(barring the 7th fret helps):
    --8--8--8--8--8--8--8--8--8--8--8--8--8--8--8--8---
    --10-10-10-10-10-10-10-10-10-10-10-10-10-10-10-10--
    --9--9--9--9--9--9--9--9--9--9--9--9--9--9--9--9---
    ---------------------------------------------------
    ---------------------------------------------------
    ---------------------------------------------------
    
    
    --8--8--8--8--8--8--8--8--8--8--8--8--8--8--8--8---
    --10-10-10-10-10-10-10-10-10-10-10-10-10-10-10-10--
    --7--7--7--7--7--7--7--7--7--7--7--7--7--7--7--7---
    ---------------------------------------------------
    ---------------------------------------------------
    ---------------------------------------------------
    
    
    --8--8--8--8--8--8--8--8--8--8--8--8--8--8--8--8---
    --10-10-10-10-10-10-10-10-10-10-10-10-10-10-10-10--
    --9--9--9--9--9--9--9--9--9--9--9--9--9--9--9--9---
    --7—(7)(7)(7)--------------------------------------
    ---------------------------------------------------
    ---------------------------------------------------
    
    
    --8--8--8--8--8--8--8--8--8--8--8--8--8--8--8--8---
    --10-10-10-10-10-10-10-10-10-10-10-10-10-10-10-10--
    --9--9--7--7--7--7--7--7--7--7--7--7--7--7--7--7---
    -----------------7--------7--------7--------7------
    ---------------------------------------------------
    ---------------------------------------------------
    
    
    Riff…
  • Tuning: Drop A , down 1 1/2 steps:
    
    
    Verse1:
    C|----0----0--0-----0--0-----0--0--0--0----0--0----
    G|----0----0--0-----0--0-----0--0--0--0----0--0----
    E|----7----7--7-----7--7-----7--7--7--7----7--7----
    B|-------------------------------------------------
    F|----5----5--5-----5--5-----5--5--5--5----5--5----
    C|----7----7--7-----7--7-----7--7--7--7----7--7----
    F|-------------------------------------------------
    
    C|----0----0--0-----0--0-----0--0--0--0----0-------
    G|----0----0--0-----0--0-----0--0--0--0----0-------
    E|----7----7--7-----7--7-----7--7--7--7----7------
    B|-------------------------------------------------
    F|----5----5--5-----5--5-----5--5--5--5----5------
    C|----7----7--7-----7--7-----7--7--7--7----7------
    F|-------------------------------------------------
    
    C|----0----0--0-----0--0-----0--0--0--0----0-------
    G|----3----3--3-----3--3-----3--3--3--3----3-------
    E|----3----3--3-----3--3-----3--3--3--3----3-------
    B|----0----0--0-----0--0-----0--0--0--0----0-------
    F|-------------------------------------------------
    C|----3----3--3-----3--3-----3--3--3--3----3-------
    F|-------------------------------------------------
    
    C|----0----0--0-----0--0-----0--0--0--0------------
    G|----3----3--3-----3--3-----3--3--3--3------------
    E|----3----3--3-----3--3-----3--3--3--3------------
    B|----0----0--0-----0--0-----0--0--0--0------------
    F|-------------------------------------------------
    C|----3----3--3-----3--3-----3--3--3--3------------
    F|-------------------------------------------------
    
    
    Verse2:…
  • INTRO & VERSE:
    
                    Db5      B5          G5    x4                  Db5      B5
    eb-|-----------------------------------------|-----------------------------
    Bb-|-----------------------------------------|-----------------------------
    Gb-|*---------------------------------------*|-----------------------------
    Db-|*-----------12-12-12-10-10-10-10-6-6-6--*|--10h12p10h12p10-12-12-12-10-
    Ab-|------------12-12-12-10-10-10-10-6-6-6---|--10h12p10h12p10-12-12-12-10-
    Db-|---0-0-0-0--12-12-12-10-10-10-10-6-6-6---|--10h12p10h12p10-12-12-12-10-…
  • Tune your guitar a half step down, then drop E to D
    
    
    This is the Intro and Chorus
    |-----------------0-0-0-0-0-0-0-0-0-0--|
    |-----------------0-0-0-0-0-0-0-0-0-0--|
    |-9-9-8-9-9-8-9-8-0-0-0-0-0-0-0-0-0-0--|  
    |-9-9-8-9-9-8-9-8----------------------|…
  • Drop C:
    
    C G C F A D
    
    ( ) = harmonics
    
    
    Fig. 1
    
    d-------------------------------------------
    a-------------------------------------------
    f-------------------------------------------
    c-------------7---7-7-------------5---5-5---
    g-------------------------------------------
    c-4--4-4--4-4---4-----4--4-4--4-4---4-------
    
    d-------------------------------------------
    a-------------------------------------------
    f-------------------------------------------
    c-------------4---4-4-------------4---4-4---
    g-------------------------------------------
    c-4--4-4--4-4---4-----4--4-4--4-4---4-------
    
    verse…
  • Drop C
    C G C F A D
    
    
    d-----------------------------------------------------------------
    a-----------------------------------------------------------------
    f-4-4-4-4-4-4-4-4-4-8-8-8-8-8-8-88-7------------------------------
    c-x-x-x-x-x-x-x-x-x-x-x-x-x-x-x-xx-x------------------------------
    g-2-2-2-2-2-2-2-2-2-6-6-6-6-6-6-66-5------------------------------
    c----------------------------------0------------------------------
    
    
    Verses
    Fig…
  • Intro/Verse :
    
    |--------------------------------------|
    |--------------------------------------|
    |--10/11-11-11----11-11---11/13-13-13--|
    |---x/-x--x--x-----x--x----x--x--x--x--|
    |---8/9---9--9-----9--9----9/11-11-11--|
    |---0-----0--0-----0--0----0-----0--0--|
    
    |---------------------------------------------------|
    |---------------------------------------------------|
    |--13-13----13/14-14-14----14-14--14/10-10--10--10--|
    |---x--x-----x/-x--x--x-----x--x---x/x---x---x---x--|
    |--11-11----11/12-12-12----12-12--12/8---8---8---8--|
    |---0--0-----0-----0--0-----0--0---0-----0---0---0--|
    
    
    Chorus…
  • Riff 1				  Riff 2
    e||--------------------------||--------------------------||
    b||-- palm mute open notes --||------ w/ flanger --------||
    G||--------------------------||--------------------------||
    D||--------------------------||-----4--------------------||
    A||--------------------------||-----4--------------------||
    E||--00-2--00-2--00-2--00-3--||--00-2--------------00-3--||
    
    
    Riff…
  • riff 1
    E -------------------------------------------------------------------
    B ---------3--------3--------3--------3-------3-------3--------------
    G -----3----3-----3--3-----3--3-----3--3----3--3----3--3-------------
    D -------5---5--------5----------------------------------------------
    A…
  • Intro:(up-strokes)
    e|--12------12----12--12----12|
    B|----11------11--11----11--11|
    G|------10------1010------1010|
    D|----------------------------|
    A|----------------------------|
    E|----------------------------|
    
    
    Verse:…
  • G-----------------------------
    D-----------------------------
    A--------------5--------------
    E-7--7-(0)-5h7---7------------
    
    Variation
    
    G---------------
    D--------9------
    A---------------
    E-7-5-7---------
  • Tuning:DADGBE
    
    
    Main Riff (rhythim varies)
    e|---------------------------------------------------------------------------|
    B|---------------------------------------------------------------------------|
    G|---------------------------------------------------------------------------|
    D|-0-2-2-2-2-2-2-2--233--3-3-3-3-7--0----------------------------------------|
    A|-x-x-x-x-x-x-x-x--xxx--x-x-x-x-x--x----------------------------------------|
    D|-0-2-2-2-2-2-2-2--233--3-3-3-3-7--0----------------------------------------|
    PM....................................
    
    
    Chorus				Chorus…
  • D-A-D-G-B-E
    
    
    (0:00,-0:27,-0:52,-1:42)
    E[------------------------------]
    B[------------------------------] FIRST
    G[------------------------------] THREE TIMES
    D[-----------0------------------]
    A[-------------0----------------]
    D[--8/7----4-----4--------------]
    (0:21,-1:11,-2:01)
    E[------------------------------]
    B[------------------------------]
    G[------------------------------]…
  • Tuning:  Db-Ab-Db-Gb-Bb-Eb  (1/2 step drop d)
    
    
    Intro
    -----------------------------------------------------------
    -----------------------------------------------------------
    --6--7--2--3----------------------------------------------…
  • Intro/verse 
    P.M the C#
    C#|--------------------------------------------------------------------------|
    G#|--------------------------------------------------------------------------|
    E |--------------------------------------------------------------------------|
    B…
  • Riff 1 (verse)
    
    G |---------------------|
    D |---------------------|   Repeat 
    A |---------------------|  
    Db|-2-1-0-1-0-1-0-1-0-1-|
    
    
    Riff 2 (chorus)
    
    G |-------------------------|
    D |-------------------------|   Repeat…
  • Intro
    C#|--------------------------------------------------------------------------|
    G#|--------------------------------------------------------------------------|
    E |-----------------------------------------14--14-14-14--14-14-14--14-14----|
    B…
  • Intro - starts 1 guitar [twice]
    E|--------------------------------------|
    B|--------------------------------------|
    G|--------88888888--55555555------------|
    D|--5555--88888888--55555555--66666666--|
    A|--5555--66666666--33333333--66666666--|
    E|--3333----------------------44444444--|
    
    
    guitar…
  • Intro:
    
    G|------------||play this at the end of the guitar
    D|------------||intro then fo right into
    A|------------||riff 1
    E|-12///////--||
    
    
    Riff 1:
    
    G|--------------------------------|--------------------------------||
    D|--------------------------------|--------------------------------||
    A|-----------------------------2--|-----------------------------0--||
    E|-2-3-2-0-2-3-2-0-2-3-2-0-2-3----|-2-3-2-0-2-3-2-0-2-3-2-0-2-3----||…
  • Intro and chorus
    F|------------------------------------------- 
    C|------------------------------------------- 
    G|------------------------------------------- 
    D|-1-0--3-4--1-0--3-4-4--1-0--3-4--3-1-1-1-1- 
    
    
    Verse
    F|--------------------------------------------------
    C|--------------------------------------------------
    G|---------2----------------2----------------2------
    D|-0-3-2-3---3-2-3--0-3-2-3---3-2-3--0-3-2-3---3-2-3
    
    
    Bridge
    G|------------------------------------------------------…
  • Intro
    
    C#|--------------------------------------------------------------------------|
    G#|--------------------------------------------------------------------------|
    E |--------------------------------------------0-----------------------------|
    B…
  • Verse 
    G|--------------------------------------- 
    D|--------------------------------------- 
    A|--------------------------------------- 
    D|-3-2-0--3-2-0--3-2-0-/-6-6-6-6-1-1-1-1- 
    
    
    Chorus 
    G|----------------- 
    D|-----------------…
  • INTRO/VERSE
    e|---------------------------------------------------------------------------|
    B|---------------------------------------------------------------------------|
    G|---------------------------------------------------------------------------|
    D|---------------------------------------------------------------------------|
    A|-0--0-0-12--12-12-5-5-5-5/9-9-9--------------------------------------------|
    D|-0--0-0-12--12-12-5-5-5-5/9-9-9--------------------------------------------|
    
    
    CHORUS
    e|---------------------------------------------------------------------------|
    B|---------------------------------------------------------------------------|
    G|---------------------------------------------------------------------------|
    D|---------------------------------------------------------------------------|
    A|-3-3-3-3-3-3-3-3-3-3-0-0---------------------------------------------------|
    D|-3-3-3-3-3-3-3-3-3-3-0-0---------------------------------------------------|
    
    
    Mosh…
  • E||---------------------------------------------------------------------|
    B||---------------------------------------------------------------------|
    G||o--11-11-11-11-11-11-11-11-11-11-11-11-11----------------------------|
    D||o--11-11-11-11-11-11-11-11-11-11-11-11-11--10-10-10-10-10-10-10-10---|
    A||----9--9--9--9--9--9--9--9--9--9--9--9--9--10-10-10-10-10-10-10-10---|
    E||--------------------------------------------8--8--8--8--8--8--8--8---|…
  • Riff 1
    
    G|---------------------|
    D|---------------------|
    A|---------------------|
    E|---------------------|
    B|-2333-2333-23-333-3-2|
    
    
    Riff 1b (last time before chorus)
    
    G|--------------------|
    D|--------------------|
    A|-5666-5666-5666-5666|
    E|--------------------|
    B|--------------------|
    
    
    Riff…
  • Verse 
    G|---------------------- 
    D|---------------------- 
    A|---------3--2/32-0--- 
    E|-0-0-2/3------------3- 
    
    
    Chorus 
    G|--------------------- 
    D|--------------------- 
    A|-------3-3-3-3-2-2-2- 
    E|-0--0---------------- 
    
  • Drop C
    C G C F A D
    
    
    d--------------------------------------------------
    a--------------------------------------------------
    f-4---4-4--3-4-4-4--6-4-6-4--4-4--3-4-4-4-6-4-6----
    c--------------------------------------------------
    g-6---6-6--5-6-6-6--5-5-5-6--6-6--5-6-6-6-5-5-5----
    c--------------------------------------------------
    
    
    Fig…
  • intro/Verse
    Bb|------------------------------------------------------------------------|
    F#|------------------------------------------------------------------------|
    C#|--------------------------------------------12-12-12-11-11-11-----------|
    G#|--9-10-9-10-9--9-10-9-10-9--9-10-9-10-9--5------------------------------|
    Eb|--9-10-9-10-9--9-10-9-10-9--9-10-9-10-9--5--10-10-10--9--9--9-----------|
    G#|--9-10-9-10-9--9-10-9-10-9--9-10-9-10-9--5------------------------------|
    
    
    Chorus
    Bb|------------------------------------------------------------------------|
    F#|------------------------------------------------------------------------|
    C#|------------------------------------------------------------------------|
    G#|--7-8-7--7-7----7-8-7--7/5-5--------------------------------------------|
    Eb|--7-8-7--7-7----7-8-7--7/5-5--------------------------------------------|
    G#|--7-8-7--7-7----7-8-7--7/5-5--------------------------------------------|
    
    
    Breakdown…
  • *Tune down to C
    
    Intro.......
    G|------------------------------------------------------
     D|------------------------------------------------------
     A|------------------------------------------------------
     C|-0------------0-2-----------------2-5-5-5-5-5-/-8-8-8-
    
    then…
  • A. 
    G|------------------------- 
    D|------------------------- 
    A|------------------------- 
    D|-0-0-0-0-0-0-7-7-7-7-7-7- 
    
    B. 
    G|--------------------------------- 
    D|--------------------------------- 
    A|---------------------------------…
  • Different tunning
    E drops down 1 and a 1/2 steps to Db
    A drops down 1/2 a step to Ab
    D drops down 1/2 a step to Db
    G drops down 1/2 a step to Gb
    
    
    VERSE
    
    Gb|---------------------------------------------------------------
    Db|---------------------------------------------------------------
    Ab|---------------------------------------------------------------
    Db|0-2-2-2-0-2-2-2-0-2-2-2-2-------0-2-2-2-0-2-2-2-0-2-2-2-2-0-0-0
    
    
    PRE-CHORUS
    
    Gb|---------------
    Db|---------------
    Ab|---------------
    Db|4-6-6-6-6-6-7-2
    
    
    CHORUS
    
    Gb|-------------------------------------
    Db|-------------------------------------
    Ab|-------------------------------------
    Db|7-7-7-7-7-7-7-7-6-6-6-6-6-6-6-6-2-0-0
    
    
    VERSEx8
    PRE-CHORUSx4
    VERSEx6
    PRE-CHORUSx8
    CHORUSx3
    PRE-CHORUSx4
    VERSEx4
    PRE-CHORUSx8
    CHORUSx1…
  • intro
    (-------------------------------------------------------*|
    (--------------------------------------------------------|
    (------------(1)---------------(1)---------------(1)-----|
    (-------4-----6-----------4-----6-----------4-----6------|
    (----2-----------------2-----------------2---------------|
    (-2-----------------2-----------------2-----------------*|
    
    
    guitar…
  • tuning : EADG
    
    
      Intro
    -----------------------------------
    -----------------------------------
    ------6--3-------------------------
    ---3--------4------4-4-4-4---------
    
    
      Main Riff
    -----------------------------------------------------------------
    -----------------------------------------------------------------
    ------------------------6-6-6-6-6-6-6-6-6--3-3-3-3-3-3-3-3-3-----
    ----3-3-3-3-3-3-3-3-3-3------------------------------------------
    
    
    -------------------------------
    -------------------------------
    -------------------------------
    ----4-4-4-4-4-4-4-4------------…
  • Intro: Drums and maybe some harmonics
    
    Verse:
    D|-----------------------|
    A|-----------------------|
    F|-----------------------|
    C|-----------------------|  4x
    G|-----------------------|
    C|--0--2--2--/9--3:------|
    
    
    Chorus:
    D|---------------------------------------|
    A|---------------------------------------|
    F|---------------------------------------|
    C|--0--2--2-2-2-2-2-2--0--5--5-5-5-5-5-5-|…
  • Intro 
    G|----------------------------------| 
    D|----------------------------------| 
    A|----------------------------------| 
    E|-3-4-3--1-3-4-3--3-4-3--1-3-4-6-4-| 
    
    
    Verse 
    G|--------------------| 
    D|--------------------|…
  • Standard tuning 
    
    
    A. 
    G|--------------------------------------- 
    D|--------------------------------------- 
    A|-3-3-3-33--6-6-6-66-------------------- 
    E|---------------------3-3-3-33-3-3-3-33- 
    
    
    B. (here are the notes,…
  • Artist: Deftones
    Title: Engine No. 9
    Album: Adrenaline
    Tuning: Standard (EADG)
    Corrected By: Daniel Mancha
    
    there were just a bunch of parts that were wrong with the old one.
    
    //=slide down
    
    Intro:
    
    G|------------||play…
  • Verse 
    G| 
    D| 
    A|------------2| 
    E|0-2-3-0-2-0--| 
    
    
    Pre Chorus 
    G|-----------------||------| 
    D|-----------------||------| 
    A|--------------2--||------| 
    E|0-2-2-0-0-2-3---2||:3----| 
    
    
    Chorus 
    G|-----------| 
    D|-----------|…
  • Intro / Chorus   
    e|---------------------------------------------------------------------------|
    B|---------------------------------------------------------------------------|
    G|-6-6-7--4-4----------------------------------------------------------------|
    D|-6-6-7--4-4-4--------------------------------------------------------------|
    A|-4-4-5--2-2-4--------------------------------------------------------------|
    D|------------4--------------------------------------------------------------|
    
    e|---------------------------------------------------------------------------|
    B|---------------------------------------------------------------------------|
    G|-6-6-7--4-4----------------------------------------------------------------|
    D|-6-6-7--4-4-4-4-2-4-4------------------------------------------------------|
    A|-4-4-5--2-2-4-4-2-4-4------------------------------------------------------|
    D|------------4-4-2-4-4------------------------------------------------------|…
  • Standard tuning
    
    E,A,D,G,B,e
    
    
    Intro x4 + Verse x4
    
    e|------------------------------------------|
    B|------------------------------------------|
    G|----5--6-----5--------------7--6-----7--4-|
    D|----------------7--4--7-------------------|
    A|-4--------4--------------4--------4-------|
    E|------------------------------------------|
    
    after…
  • tunning low to high  D A D G 
    
    
    intro 
    G|------------------------- 
    D|------------------------- 
    A|------------------------- 
    D|-9-/-7-7-0--9-/-7-7--7-0- 
    
    
    verse 
    G|----------------- 
    D|----------------- 
    A|-----------------…
  • Intro:
    
    E-----------------------5*------------------------
    B-----------------------5*----------------------7*
    G-----------------------------------------------7*
    D-------------------------------------------------
    A-------------------------------------------------
    D-5p4-5h6-5p4-4-5p4-5p4---5p4-5h6-5p4-4-5p4-5p4---
    
    E-----------------------5*------------------------
    B-----------------------5*----------------------7*
    G-----------------------------------------------7*
    D-------------------------------------------------…
  • riff 1
    g-----------------------------------------------------------------|
    d-----------------------------------------------------------------|
    a-----------------------------------------------------------------|
    d-0-0-0-0-3-0-5-0-8-8-8-0-3-0-5-0-5-5-5-0-3-0-5-0-7-7-7-0-3-0-5-0-|
    
    
    riff…
  • Standard tuning 
    
    
    main riff 
    G|----------------- 
    D|----------------- 
    A|---2-3---3-2----- 
    E|-0-----0-----5-4- 
    
    
    When it changes 
    G|--------------------------------- 
    D|--------------------------------- 
    A|-2/3-3/2-2/3-3/5-----------------…
  • Verse 
    There are no open strings during the verse thats just Frank.
    C#|--------------------------------------------------------------------------|
    G#|--------------------------------------------------------------------------|
    E…
  • D               Bm          A
    Inside of this hole you create 
        D         F#m Bm  D
    You hide from yourself 
                 A	         D
    You separate every belief 
    	F#m      Bm		D   A
    That is true and you spend your…
Наверх