Аккорды «Deviates»

Deviates
The Deviates were a punk rock band from South Bay California. They formed in the winter of 1994 when their members were in their mid-teens and slowly built a following in the South Bay where Pennywise guitarist Fletcher Dragge got interested in them. The band's first album on Theologian Records label was produced by Dragge. They toured for three summers with the Vans Warped Tour before breaking up in 2004. The Deviates were a punk rock band from South Bay California. They formed in the winter of 1994 when their members were in their mid-teens and slowly built a following in the South Bay where Pennywise guitarist Fletcher Dragge got interested in them. The band's first album on Theologian Records label was produced by Dragge. They toured for three summers with the Vans Warped Tour before breaking up in 2004. Скрыть...
Популярные аккорды Deviates:
алфавиту | просмотрам | случайно
  • L GUITAR/R GUITAR/BASS
    
    
    *note-this song is actually a little more complicated than it sounds,
    but don't give up it'll come to you quickly!
    -These are all the parts you need to play the song for (rythym)guitar,
    (lead)guitar,…
  • Intro:
    
    ------------------------------------------------------------------------------|
    ------------------------------------------------------------------------------|
    -------999999-----------------------------------------------------------------|
    -2-2---999999----------x4-----------------------------------------------------|
    -2-2---777777-----------------------------------------------------------------|
    -0-0--------------------------------------------------------------------------|…
  • 4x
    A:--2--------------------------------------------------
    E:-----3-0-3-2----------------------------------------
    
    whole thing except it hits each note 4 times when it gets fast
    
    
  • This is an older version of the song. It has a little fill that Damien does 
    and the chorus clicks.
    
    verse
    G:---------------------------------------------------------------
    D:---------------------------------------------------------------
    A:------------------1010101010101010----55555555-----------------
    E:--77777777----------------------------------------5555-3333--------
    
    
    verse…
  • THE VERSE: 
    G:--------------------------------------------------------- 
    D:--------------------------------------------------------- 
    A:--------------------------------------------------------- 
    E:-0-0-0-0--3-5--0-0-0-0--6-5--0-0-0-0--3-5-7-7-7-7-7-7-7-7…
  • ------------------------------------------------------------------------------|
    ------------------------------------------------------------------------------|
    -------7-7--5-5-7-77----------------------------------------------------------|
    -5-55--7-7--5-5-7-77----------------------------------------------------------|
    -5-55--5-5--3-3-5-55----------------------------------------------------------|
    -3-33-------------------------------------------------------------------------|…
Наверх