Аккорды «Devo»

Devo
Devo – американская группа новой волны, образованная в Акроне, Огайо, в 1972 году. Используя китчево-футуристический имидж и соответствующую тематику - пародии на научно-фантастические сюжеты, сатирико-сюрреалистические зарисовки и теорию деэволюции (отсюда название), Devo исполняли атональный авангардный синти-поп – хоть и причислялись (в разное время) к панку, пост-панку и арт-панку. Группа относится к числу пионеров видео-искусства, основы которого они принялись разрабатывать ещё в 1973 году.… Читать полностью... Devo – американская группа новой волны, образованная в Акроне, Огайо, в 1972 году. Используя китчево-футуристический имидж и соответствующую тематику - пародии на научно-фантастические сюжеты, сатирико-сюрреалистические зарисовки и теорию деэволюции (отсюда название), Devo исполняли атональный авангардный синти-поп – хоть и причислялись (в разное время) к панку, пост-панку и арт-панку. Группа относится к числу пионеров видео-искусства, основы которого они принялись разрабатывать ещё в 1973 году. Наивысшим достижением Devo в Billboard Hot 100 остаётся сингл "Whip It" (1980), однако степень влияния их на поп-экспериментаторов своего и следующих поколений намного выше коммерческих показателей. Devo – одна из наиболее инновационных и в тоже время одна из самых недооцененных групп "новой волны". Ее название возникло от сокращения слова "de-evolution". Понятием "деэволюция" были одержимы основатели коллектива Марк Матзерсбаух (р. 18 мая 1950) и Джерри Кэсэйл, считавшие, что человечество в целом, и американское общество в частности, регрессируют. Эту идею разделял также их приятель Боб Льюис, впоследствии ставший менеджером Devo. Первая инкарнация группы была реализована в 1972 году. Обязанности распределились следующим образом: Марк взял на себя вокальные дела, Джерри досталась басуха, братья Марка, Боб и Джим, поделили лидер-гитару и ударные, а ритм-гитарой заведовал другой Боб, брат Джерри. Эта конфигурация просуществовала до 1976 года, пока Джима не сменил Алан Майерс. Несколько лет музыканты оттачивали свой саунд, добиваясь электронного, роботизированного звучания. За это время выработался и их имидж: Devo одевались в одинаковые костюмы и шапочки, изображая клонированность как символ регресса. В 1976 году группа снялась в короткометражном фильме "The Truth About De-Evolution", и это стало для нее поворотным моментом. Картину увидели Дэвид Боуи и Игги Поп, и она произвела на них настолько сильное впечатление, что эти выдающиеся деятели от рок-музыки помогли организовать Devo контракт с Warner Bros. Первый альбом "Q: Are We Not Men? A: We Are Devo!", спродюсированный Брайаном Ино, вызвал неоднозначные реакции, но в любом случае обратил внимание на группу. Следующее творение "Duty Now for The Future" тоже было достаточно интересным, но завоевать признание широких масс Devo удалось лишь с третьей попытки. Песня "Whip It" с альбома "Freedom of Choice" получила прописку на MTV, а тираж соответствующего сингла пересек "золотую" отметку. К сожалению, коммерческий успех был кратковременным и мрачновато-серьезная пластинка "New Traditionalists" никак не отвечала ожиданиям публики. Проблемы творческого кризиса осложнялись судебными разборками, затеянными Бобом Льюисом против Марка. В 1986 году команду покинул Алан Майерс, уступивший место Дэвиду Кендрику (экс-Gleaming Spires, Sparks). Выпустив еще пару альбомов, музыканты все больше внимания стали уделять работе на стороне. В частности, Марк писал саундтреки, играл на клавишных для Rolling Stones и работал бэк-вокалистом у Дебби Харри, а Джерри продюсировал клипы таких команд как Foo Fighters и Soundgarden. И хотя деятельность самого коллектива в то время практически сошла на нет, новоявленные гранжевые группы заявляли о влиянии Devo на свое творчество. Nirvana сделала кавер на "Turnaround", а Soundgarden и Superchunk перепели "Girl U Want". Наконец, в 1996-м состоялся реюнион "деэволюционеров" (с Джошем Фризом вместо Кендрика): они поучаствовали в туре Lollapalooza и выпустили интерактивную игру "Adventures Of The Smart Patrol". С тех пор музыканты собирались вместе лишь спорадически, чтобы сыграть какой-нибудь концерт. Тем не менее, в 2000-ых команда снова активизировала гастрольную и студийную деятельность. Результатом стал альбом "Something for Everybody", вышедший 15 июня 2010 года. 1978 Be Stiff EP 1978 Q: Are We Not Men? A: We Are Devo! 1979 Duty Now for the Future 1980 Freedom of Choice 1981 New Traditionalists 1982 Oh, No! It’s Devo 1984 Shout 1988 Total Devo 1990 Smooth Noodle Maps 2010 Something for Everybody 2013 Something Else for Everybody Скрыть...
Популярные аккорды Devo:
алфавиту | просмотрам | случайно
  • e e e e e e+q   w 3  e e e e e e+q   h e e e e 7
    G:-----------------|----|---------------|------------|
    D:4:---------------|---*|*--------------|-----------*|
    A:4:-------2-5-R---|-R-*|*------2-5-R---|-R-0-0-----*|
    E:---0-0-4---------|----|-0-0-4---------|-------3-2--|…
  • %
         h+e e e e   e e e e e e e e    e e+q+e e e e   e e e e e e e e
    G:-------------|-----------------|----------------|------------------|
    D:4:-R-------0-|-3-3-3-3-3-3-2-3-|*-5-R---------0-|-3-3-3-3-3-3-2-3-*|
    A:4:-------2---|-----------------|*-----------2---|-----------------*|
    E:-------3-----|-----------------|----------3-----|------------------|…
  • Starts at 7 seconds
    Intro
    |G|-----------5------------------|
    |D|-----0-0-0--------------------|
    |A|-12\---------5\---------------|
    |E|-----------------3-3-1-2-3-3--|
    
    Fig 1
    |G|-------5-------------------|
    |D|-0-0-0---------------------|
    |A|---------5\----------------|
    |E|-------------3-3-1-2-3-3---|
    
    
    Fig…
  • Tuning:standard
    
    e|--6----------------------4----------4-||-------------------------------------|
    B|--5---7-----------5h7p5-5----5h7p5-5--||-------------------------------------|
    G|------5----------7-----7----7-----7---||Repeat-------------------------------|
    D|--------------------------------------||-------------------------------------|
    A|--------------------------------------||-------------------------------------|
    E|--------------------------------------||-------------------------------------|
    
    e|-----|-----|-----|-----|---------------------------------------------------|
    B|-----|-----|-----|-----|---------------------------------------------------|
    G|2----|-----|9----|5----|---------------------------------------------------|
    D|2----|3----|9----|5----|---------------------------------------------------|
    A|0----|3----|7----|3----|---------------------------------------------------|
    E|-----|1----|-----|-----|---------------------------------------------------|
    
    Back…
  • Intro: C D Bb F A    E
    
            E                              A
    It's a beautiful world we live in, a sweet romantic place
      E                             
    Beautiful people everywhere, the way they show they care, makes…
  • Intro:
    |-----------------|-----------------|------------------|--------------|
    |-----------------|-----------------|------------------|---------3----|
    |-------------3p2-|-------------3p2-|--------------3p2-|---------2--2-|
    |-2-2-3-2-5-2-----|-2-2-3-2-5-2-----|--2-2-3-2-5-2-----|-2-2-3-2-0--2-|
    |-----------------|-----------------|------------------|------------0-|
    |-----------------|-----------------|------------------|--------------|
    
    
    Then…
  • Tuning:standard
    
    Intro (7/8 time)
    e|-------|-------||---------------------------------------------------------|
    B|-------|-------||---------------------------------------------------------|
    G|-------|-------||---------------------------------------------------------|
    D|-2--4--|-6--8--||4…
  • Tuning: stanadard
    
    Repeat phrase A 16x
    e|------------------------||--------------------------------------------------|
    B|------------------------||--------------------------------------------------|
    G|------------------------||--------------------------------------------------|
    D|-2------------0---------||--------------------------------------------------|
    A|-0--------0-3---3p0-----||--------------------------------------------------|
    E|----3p0-3-----------3p0-||--------------------------------------------------|
    
    then…
  • INTRO
    (Tab note 1)
    E 0--0--0---000---|----------------|
    B 1--1--1---111---|----------------|
    G 0--0--0---000---|----------------|
    D 2--2--2---222---|----------------|
    A 3--3--3---333---|------0-1-0-----|
    E ----------------|2-3-4-------4-3-|
    
    This…
  • G:-----------------------:
    D:-----------------------:
    A:------5-5--5-----------:
    E:O---O---------O-3-O-3--:
    
    
    G:--------------------:
    D:-------------O-4-2--:
    A:-------O-2-4--------:
    E:-O-2-4--------------:
    
    G:--------------------------------------:
    D:-----7----------5----------3----------:
    A:--------5----------3----------1---2---:
    E:-5--5-5-----3--3-3-----1--1-1---------:…
  • Verses:
    
    Note: all lower notes are synth/bass parts, the notes on the top two frets 
    are guitar parts. It's two tabs in one.
    
    |---------------------12-12-12-12-12-12--|
    |---------------------12-12-12-12-12-12--|
    |----------------------------------------|
    |----------------------------------------|
    |--------7-------7-----------------------|
    |--0-0-0---0---0---0---------------------|…
  • Tuning: Standard
    
    For the intro, keep your fingers in an E major position.
    e|--0----------0--------0-------0------|0---|
    B|---0----------0--------0-------0-----|0---|
    G|----1-0-1------1-0-1----1-0-1---1-0-1|1---|let…
  • All right, clockout!
    
    |-------------------------|-------------------------|-------------------------|
    |-10----10-10-12-12-10-10-|-12-10-12-10----10-12-10-|-12-12-10-12-12-12-10-10-|
    |-10----10-10-12-12-10-10-|-12-10-12-10----10-12-10-|-12-12-10-12-12-12-10-10-|
    |-10----10-10-12-12-10-10-|-12-10-12-10----10-12-10-|-12-12-10-12-12-12-10-10-|
    |-------------------------|-------------------------|-------------------------|
    |-------------------------|-------------------------|-------------------------|
    
    
    |-------------------------|-------------------------|-------------------------|
    |-10-10-12-10----10-12-10-|-12-12-10-12-12-12-10-10-|-10-10-12-10-------------|
    |-10-10-12-10----10-12-10-|-12-12-10-12-12-12-10-10-|-10-10-12-10-------------|
    |-10-10-12-10----10-12-10-|-12-12-10-12-12-12-10-10-|-10-10-12-10-------------|
    |-------------------------|-------------------------|-------------------------|
    |-------------------------|-------------------------|-------------------------|…
  • Repeated throughout much of the song. As ever listening to the song is everything.
    
    General Mantra of Intro + Verse
        E     A        E     A        C   C*         A   Asus4 
    e|--0--0--0-0-x-|--0--0--0-0-x-|--0-0-0-0-0-0-|--0-0-0-0-0-0-|
    b|--0--0--2-2-0-|--0--0--2-2-x-|--1-1-1-1-1-1-|--2-2-3-3-2-2-|
    g|--1--1--2-2-0-|--1--1--2-2-0-|--0-0-0-0-0-0-|--2-2-2-2-2-2-|
    d|--2--2--2-2-0-|--2--2--2-2-0-|--2-2-3-3-2-2-|--2-2-2-2-2-2-|
    a|--2--2--0-0-x-|--2--2--0-0-0-|--3-3-3-3-3-3-|--0-0-0-0-0-0-|
    E|--0--0--x-x-x-|--0--0--x-x-x-|--0-0-0-0-0-0-|--0-0-0-0-0-0-|
    
    Repeated…
  • You'll be playing this... endlessly:
    e|----------------|
    B|-3'2--1---------|
    G|0----0-0'3-0-0'2|
    D|----------------|
    A|----------------|
    E|----------------|
    
    On the 3rd verse, the main riff is played an octave higher:
    e|-10'9--8-----------|
    B|8-----8-8'11-8-8'10|
    G|-------------------|
    D|-------------------|
    A|-------------------|
    E|-------------------|
    
    This…
  • INTRO:  (Based on the synthesizer)
    
        G  G D   G  G D   F  F G   F  F G   G  G D
    
    E ------------------------------------------------
    B ------------------------------------------------
    G --------------------5/7/7----5/7-7--------------
    D…
  • B | | | F | A | B | | | F | A | B | F | G           B | F | G           B | F | G           B | F | G
    E|-7-------1---5---7-------1---5---7---8---3-----------7---8---3-----------7---8---3-----------7---8---3-------------|
    B|-7-------1---5---7-------1---5---7---10--3-----------7---10--3-----------7---10--3-----------7---10--3-------------|
    G|-8-------2---6---8-------2---6---8---10--4-----------8---10--4-----------8---10--4-----------8---10--4-------------|
    D|-9-------3---7---9-------3---7---9---10--5-----------9---10--5-----------9---10--5-----------9---10--5-------------|
    A|-9-------3---7---9-------3---7---9---8---5-----------9---8---5-----------9---8---5-----------9---8---5-------------|
    E|-7-------1---5---7-------1---5---7-------3-3-3-3-2-5-7-------3-3-3-3-2-5-7-------3-3-3-3-2-5-7-------3-3-3-3-2-----|…
  • Intro:  D  Bm  D  Bm  D  Bm  G   D  :||
    
       D               Bm     D              Bm
    It takes a worried man to sing a worried song
      D              Bm         G        D
    I may be worried now but he won't be worried…
  • Intro: All Synths play something like this: 
    |-------------------------------||
    |-------------------------------||
    |------------------------------o|| Play this 8 times
    |--10--7--10--7-7--10--7--10---o||
    |--10--7--10--7-7--10--7--10----||…
  • Riff 1
    -|--------------------------------------------------------------------------|-
    -|-4-4-4-4-5-5-6-6-6b77-7-77------------------------------------------------|-
    -|-4-4-4-4-5-5-6-6----------------------------------------------------------|-
    -|-4-4-4-4-5-5-6-6----------------------------------------------------------|-
    -|-2-2-2-2-3-3-4-4----------------------------------------------------------|-
    -|--------------------------------------------------------------------------|-
    
    Riff…
  • Tuning:drop D (low to high = D-A-D-G-B-E) 
    
    Bass and guitar part
    e|----------------------|---------------------------------------------------|
    B|----------------------|---------------------------------------------------|
    G|----------------------|---------------------------------------------------|
    D|----------------------|-repeat--------------------------------------------|
    A|--------0-3p2-0-----0-|---------------------------------------------------|
    E|-0-0-2h3--------2h3---|---------------------------------------------------|
    
    2nd…
  • Verse:
    
    4/4                                    3/4
    
    |-5-5-----5-5-----5-5-------------|-5-5-----5-5------------|
    |-5-5-----5-5-----5-5-------------|-5-5-----5-5------------|
    |---------------------------------|------------------------|
    |---------------------------------|------------------------|
    |-------------------------5-5-5-4-|----------------5-5-5-4-|
    |-4-5-5-4-5-5-4-5-5-5-4-5---------|-4-5-5-4-5-5-4-5--------|…
  • Tuning: Standard
    
    This is one of Devo’s earliest and most obscure songs. And while it’s easy to play, 
    tabbing it was horrible. The guitar tone that Bob1 used is so confusing that it has resulted 
    in me taking four…
  • Chords:
         E A D G B E
         -----------
    D    x 5 7 7 7 5
    A    x 0 2 2 2 0
    Bm   x 2 4 4 3 2
    
    The chords are
    D Bm A D
    use barre chords for ease.  You'll love it
    Listen to the song for timing, etc..
    "Solo" is based…
  • Tuning: Standard (E A D G B e)
    
    “Can you take it?”*
    e|----------|
    B|----------|
    G|----------|
    D|8888-6666-|
    A|8888-6666-|
    E|6666-4444-|
    Play that... eight times? I don't know.
    
    Pre-verse:
    e|------------|
    B|------------|
    G|------------|
    D|4-2-----0---|
    A|-5-1-3'1-1--|
    E|----------3-|
    Played…
  • Tuning: Standard (E A D G B e)
    
    Intro/verse*:
    e|-----0h12-12-----|
    B|-----------------|
    G|-----------------|
    D|0h2--------------|
    A|0h2--------------|
    E|0----------------|
    Do that three times, and then:
    e|------------|
    B|------------|
    G|------------|
    D|---0--------|
    A|0h2--2p0----|
    E|--------3---|
    
    “An…
  • Keyboard Parts:
    
    Intro: Play This 3 Times:
    
    |-----------------------------------------------------------------|
    |-----------------------------------------------------------------|
    |-----------------------------------------------------------------|
    |-----5-5-----5-5-----5-5-----5-5-----5-5-----5-5-----5-5-----5-5-|
    |-----------------------------------------------------------------|
    |-3-3-----3-3-----3-3-----3-3-----3-3-----3-3-----3-3-----3-3-----|
    
    Then…
  • Intro/Verse
    E--2--7-7-7-7-7-7------------3-3-3-3--5-5-5-5--7-7-7-7-7--------
    A------------------5-5-5-5-5-5-----------------------------------
    D----------------------------------------------------------------
    G----------------------------------------------------------------
    Chorus
    E------5-5-5--7-7-7-5-7-----+-----5-5-5--7-7-7-5-7-+-7-7-7------+
    A--5-5-----------------…
  • Capo 3
    
    G
    I'm working in a coal mine
    going down down
    Working in a coal mine
    F                     D
    whew I nearly slipped down x2
    
    C                   G
    Five o'clock in the morning
    C                 G
    I'm up…
  • Intro
    C
    (keyboard and drums x 8 bars) then enter guitar
    C         B+  A     G
    / / / / | / / / / | / / / / | / / / /  x 2
    F         Am  G
    / / / / | / / / /  x 3
    F         Am  G     F
    / / / / | / / / / | / / / / | / / / /…
  • opening riff
    E ----------------------------------------------------------------|
    B ----------------------------------------------------------------|
    G ----------------------------------------------------------------|
    D -4--0-------4--0------------------------------------------------|
    A…
Наверх