Аккорды Dream - Roadtrip (feat. PmBata)

Добавлено: @romashka
Дата добавления: 25 Марта 2021г.
Рейтинг:
0.0
Просмотров: 126
Транспонировать - +
Интро
   Cm7           Ebmaj7          Bb            F
e|-----------------------------|-----------------------------|
B|-------4-------------3-------|-------3---------------------|
G|-----3-------------3---------|-----3---------------2-------|
D|---5-------------5-----------|---3---------------3---------|
A|-3-------------6-------------|-1---------------3-----------|
E|-----------------------------|---------------1-------------|

   Cm7           Ebmaj7          Bb              
e|-----------------------------|---------------8p6--------------| 
B|-------4-------------3-------|-------3-----------8p6-----6----|      
G|-----3-------------3---------|-----3-----------------7h8---8--|
D|---5-------------5-----------|---3----------------------------|  
A|-3-------------6-------------|-1------------------------------|  
E|-----------------------------|--------------------------------|


Куплет
        Cm7                         Ebmaj7
People change like the tides in the ocean
            Bb                  F
At least I think or am I dead wrong?
            Cm7                         Ebmaj7
Foot on the brake, at the light I don't notice
           Bb                  F
I sit and wait until the next song
        Cm7        Ebmaj7
Twenty hours in an old van
        Bb                      F
Up the east coast, through the cold wind
             Cm7           Ebmaj7
Drove twenty hours, by the ocean
        Bb                 F
Up the east coast, what a road trip



Припев
Cm7         Ebmaj7      Bb          F
Now that interstate is paved with memories
Cm7  Ebmaj7       Bb               F
Of a past life I lived when I was eighteen
Cm7       Ebmaj7         Bb              F
And еvеrу winter I think back to what we used to ве
Cm7     Ebmaj7        Bb       F
In that past life we lived at eighteen
Cm7   Ebmaj7 Bb  F
   Ooh,  ooh, ooh
Cm7   Ebmaj7 Bb  F
   Ooh,  ooh, ooh


Куплет
Cm7      Ebmaj7
Uh, I reminisce about a past life
Bb                            F
Things change, I get it 'cause nothing lasts right?
Cm7              Ebmaj7
Yeah, and I was thinking 'bout her last night
Bb                               F
Scrolling through our memories, debating 'bout our last times
Cm7        Ebmaj7
Ayy, for a minute we was cool
         Bb                   F             Cm7
Then we flew just a lil' too close to the sun
        Cm7             Ebmaj7
Now we finished, now we through
          Bb                    F           Cm7
Guess we knew one day we would have to grow up
       Cm7        Ebmaj7
Twenty hours in an old Ford
            Bb                F
Across the Midwest, thinking what for
              Cm7             Ebmaj7
Drove twenty hours, but it's hopeless
            Bb               F
Across the Midwest, what a road trip


Припев
Cm7        Ebmaj7        Bb        F
Now that interstate is paved with memories
Cm7 Ebmaj7        Bb               F
Of a past life I lived when I was eighteen
Cm7       Ebmaj7         Bb              F
And еvеrу winter I think back to what we used to ве
Cm7     Ebmaj7        Bb       F
In that past life we lived at eighteen

Интро
Cm7 Ebmaj7 Bb F
Cm7 Ebmaj7 Bb F Cm7 
Наверх