Аккорды Dropkick Murphys - Johnny I Hardly Knew Ya Chords

Добавлено: @romashka
Дата добавления: 24 Сентября 2022г.
Рейтинг:
0.0
Просмотров: 63
Транспонировать - +
e|-----------------------------------------------------------------------------------|
B|-----------------------------------------------------------------------------------|
G|------------0---0------------------0---0---2-4-0-4---------------------------------|
D|----2222--4---4---2-0---0---2222-4---4---------------------------------------------|
A|--2-------------------2---2--------------------------------------------------------|
E|-----------------------------------------------------------------------------------|

e|-------------------------------------------------0----0---0---0--------------------
B|-------------------------------------------------0----0---0---0--------------------
G|-0-4444-5-4-2222-4-2-0000-2-0----0-2-4-2-0-------0----0---0---0--------------------
D|-----------------------------444-----------4-----0h2--0h2-0h2-2--------------------
A|-------------------------------------------------2----2---2---2--------------------
E|-------------------------------------------------0----0---0---0--------------------

 Em
When on the road to sweet Athy,
  G
Hurroo Hurroo
  Em
When on the road to sweet Athy,
  Bm
Hurroo Hurroo
     Bm              A
When on the road to sweet Athy
  G                    F#
A stick in the hand, A drop in the eye
  Bm         A   G       F#
A doleful damsel I heard cry
 Em
Johnny I hardly knew ya

Em
Where are the eyes that looked so mild,
  G
Hurroo Hurroo
 Em
Where are the eyes that looked so mild,
 Bm
Hurroo Hurroo
  Bm                      A
Where are the eyes that looked so mild
     G                 F#
When my poor heart you first beguiled
 Bm         A       G            F#
Why did ya run from me and the child
 Em
Johnny I hardly knew ya

[Chorus]:
       Em
We had guns and drums and drums and guns,
  G
Hurroo Hurroo
       Em
We had guns and drums and drums and guns,
  Bm
Hurroo Hurroo
       Bm                  A
We had guns and drums and drums and guns
     G          F#       Bm A G F# Em
The enemy never slew ya
Johnny I hardly knew ya


 Em
Where are the legs with which you run,
  G
Hurroo Hurroo
  Em
Where are the legs with which you run,
  Bm
Hurroo Hurroo
  Bm                      A
Where are the legs with which you run,
      G                F#
When first you went to carry a gun
  Bm         A       G            F#
Indeed your dancing days are done
  Em
Johnny I hardly knew ya


     Em
You hadn't an arm, you hadn't a leg,
  G
Hurroo Hurroo
     Em
You hadn't an arm, you hadn't a leg,
  Bm
Hurroo Hurroo
     Bm                  A
You hadn't an arm, you hadn't a leg
           G                  F#
You're a spinless, boneless, chickenless egg
        Bm         A       G            F#
You'll Have to be put with the bowl to beg
  Em
Johnny I hardly knew ya


    Em
Im happy for to see ya home
  G
Hurroo Hurroo
     Em
Im happy for to see ya home
   Bm
Hurroo Hurroo
    Bm            A
Im happy for to see ya home
  G              F#
From the Isle of Ceylon
  Em
Johnny I hardly knew ya 
Наверх