Аккорды Drummatix - Воздух

Добавлено: @romashka
Дата добавления: 27 Апреля 2022г.
Рейтинг:
0.0
Просмотров: 19
Транспонировать - +
    Bsus4                     F#7add11
E|-----------0-------------|-------------------------|
B|----------------0--------|-----0----------0--------|
G|--------0----------------|-----------3-------3-----|
D|-----4-------------4-----|--------4-------------4--|
A|--2-------------------2--|-------------------------|
E|-------------------------|--2----------------------|

Bsus4  F#7add11  Bsus4 F#7add11
На миг задержит  шаг,  посмотрит
Bsus4  F#7add11  Bsus4  F#7add11
В твои глаза,    в твои глаза
Bsus4        F#7add11
Здесь в окна свет входит
Bsus4  F#7add11
А он идет навстречу

Bsus4 F#7add11 G6     Em
Воздух         держит
Bsus4 F#7add11 G6     Em
Воздух         держит

Bsus4   F#7add11 Bsus4  F#7add11
Вечность пахнет  нефтью, нефтью
Bsus4 F#7add11 Bsus4  F#7add11
Любви не место, любви не место
Bsus4        F#7add11
Здесь в окна свет входит
Bsus4 F#7add11
А он идет по небу

Bsus4 F#7add11 G6     Em
Воздух         держит
Bsus4 F#7add11 G6     Em
Воздух         держит

Bsus4      F#7add11            G6
Боль белым облаком накроет, унесет
      Em                  Bsus4   
Белым лебедем по небу самолет
      F#7add11           G6
В колыбели убаюкает - уснем
         Em
Мы все уснем

Bsus4     F#7add11            G6
Ой, белым облаком накроет, унесет
      Em                  Bsus4   
Белым лебедем по небу самолет
      F#7add11           G6
В колыбели убаюкает - уснем
       Em
Но это далеко не все

Bsus4 F#7add11 G6     Em
Воздух         держит

Bsus4      F#7add11            G6
Боль белым облаком накроет, унесет
      Em                  Bsus4   
Белым лебедем по небу самолет
      F#7add11           G6
В колыбели убаюкает - уснем
         Em
Мы все уснем

Bsus4     F#7add11            G6
Ой, белым облаком накроет, унесет
      Em                  Bsus4   
Белым лебедем по небу самолет
    F#7add11           G6
Колыбелью убаюкает - уснем
       Em
Но это далеко не все 

Аппликатуры аккордов:
    Bsus4    F#7add11     G6        Em
E|----0----|----0----|----0----|----0----|
B|----0----|----0----|----0----|----0----|
G|----4----|----0----|----0----|----0----|
D|----4----|----4----|----5----|----2----|
A|----2----|----4----|----5----|----2----|
E|----X----|----2----|----3----|----0----| 
Наверх