Аккорды Дуэт 11 - Убери свои руки

Добавлено: @romashka
Дата добавления: 12 Мая 2021г.
Рейтинг:
0.0
Просмотров: 116
Транспонировать - +
Проигрыш
   2--2---5--4--2-----------2-2-2------2-2-2-2--------
   2--2-------------2------------------4-4-4-4--------
   2--2---------------------1-1-1------4-4-4-4--------
   4--4---------------------2-2-2------4-4-4-4--------
   4--4---------------------x-х-х------2-2-2-2--------
   2--2---------------------x-х-х------2-2-2-2--------
Fm ↓  ↓                 E/9 ↓ ↑ ↓    H ↑ ↑ ↓ ↑


   2--2---------------------2-2-2------2-2-2-2---------
   2--2--------------------------------4-4-4-4---------
   2--2---4--2--1-----------1-1-1------4-4-4-4---------
   4--4-------------2-------2-2-2------4-4-4-4---------
   4--4---------------------x-х-х------2-2-2-2---------
   2--2---------------------x-х-х------2-2-2-2---------
Fm ↓  ↓                 E/9 ↓ ↑ ↓      H ↑ ↑ ↓ 

Fm               E/9    H
Убери свои руки от моих волос
Fm                    E/9 H
Они 20 лет росли не для тебя
Fm               E/9            H
Убери свои губы, отойди на пару шагов
       Fm                       E/9 H
Чтобы убедился, что ты, отвергши уста, 
                Fm E/9 H  Fm E/9 H
Не вцепишься в горло мне. В горло мне.

Fm                            E/9  H
Я мог бы смеяться там, где не нужно жить,
        Fm                    E/9 H
Пожирая твою еду, на вкус как яд.
Fm               E/9    H            Fm
Я мог бы таскать каштаны из огня, и говорить,
              E/9    H
Не повторяя из фильмов цитат. 
Fm E/9 H    Fm E/9   H
Да не хочу. Я не хочу.

D                          E    
А ты снова стоишь у меня во дворе
Fm                       A
Несмотря на мои слова и чужие запреты гонишь волну
D                       E    
А ты снова глядишь в мое окно
Fm              A
А я делаю все, чтоб не выглядеть в нем дураком
D                 Bm
А ты снова стоишь у меня в дворе-е-е-е

Проигрыш

Fm                   E/9       H
Придержи свои слова, скудные, оставь для тех,
Fm          E/9    H
Кому на них не наплевать
Fm             E/9   H
Придержи свои слова
Fm                        E/9     H
Тебе прийдется держать их всегда при себе

Fm                         E/9    H
Кто я такой, чтобы быть от меня без ума
Fm                 E/9   H
На улицах Парижа - я алжирец
Fm                         E/9    H
Кто я такой, чтобы быть от меня без ума
Fm                 E/9      H
В морской пехоте я морской пехотинец.

D                          E    
А ты снова стоишь у меня во дворе
Fm                       A
Несмотря на мои слова и чужие запреты гонишь волну
D                       E    
А ты снова глядишь в мое окно
Fm              A
А я делаю все, чтоб не выглядеть в нем мудаком
D                 Bm
А ты снова стоишь у меня в дворе-е-е-е
Наверх