Аккорды Дуэт "Братцы" - Лампадка

Добавлено: @romashka
Дата добавления: 06 Декабря 2022г.
Рейтинг:
0.0
Просмотров: 35
Транспонировать - +
Вступление: x2 
   Am                Dm
 E---0-0-0-0-0-0-0-|---1-0-1-3-1-0-1-|
 B---1-0-1-3-1-0-1-|---3-3-3-3-3-3-3-|
 G---2-2-2-2-2-2-2-|---2-2-2-2-2-2-2-|
 D-----------------|-0---------------|
 A-0---------------|-----------------|
 E-----------------|-----------------|

   F                 Am              Am
 E---1-0-1-1-1-0-1-|-------0-----0-|-------0--------
 B---1-0-1-3-1-0-1-|-----1---1-----|-----1---0-h1p0-
 G---2-2-2-2-2-2-2-|---2-------2---|---2------------
 D-----------------|---------------|----------------
 A-----------------|-0-------------|-0--------------
 E-1---------------|---------------|---------------=

Куплет:
   Am              Dm              Am               
 E-------0-----0-|-------1-----1-|---0-0-0-0-0-0-0-|
 B-----1---1-----|-----3---3-----|---1-0-1-3-1-0-1-|
 G---2-------2---|---2-------2---|---2-2-2-2-2-2-2-|
 D---------------|-0-------------|-----------------|
 A-0-------------|---------------|-0---------------|
 E---------------|---------------|-----------------|

   Am              Dm              G             G           
 E-------0-----0-|-------1-----1-|-----3-----3-|-----3-----3-
 B-----1---1-----|-----3---3-----|-------3-----|-------3-----
 G---2-------2---|---2-------2---|---0-----0---|---0-----0---
 D---------------|-0-------------|-------------|-------------
 A-0-------------|---------------|-------------|-------------
 E---------------|---------------|-3-----------|-3-----------

   Dm              Em              F                
 E-------1-----1-|-------0-----0-|---1-0-1-1-1-0-1-|
 B-----3---3-----|-----0---0-----|---1-0-1-3-1-0-1-|
 G---2-------2---|---0-------0---|---2-2-2-2-2-2-2-|
 D-0-------------|---------------|-----------------|
 A---------------|---------------|-----------------|
 E---------------|-0-------------|-1---------------|

   Dm              Em              Am              Am            
 E-------1-----1-|-------0-----0-|-------0-----0-|-------0--------
 B-----3---3-----|-----0---0-----|-----1---1-----|-----1---0-h1p0-
 G---2-------2---|---0-------0---|---2-------2---|---2------------
 D-0-------------|---------------|---------------|----------------
 A---------------|---------------|-0-------------|-0--------------
 E---------------|-0-------------|---------------|----------------

Бой: ↓ x↑

Am Dm Am
Когда в душе тревога и покой
Am Dm G 
И жизнь твоя устойчива и шатка
Dm Em F
В монастыре, который за рекой
Dm Em F
Под образом святым горит лампадка

Am Dm Am
Она горит и в дождь и в сильный зной
Am Dm G 
Мерцает огонек ее и в стужу
Dm Em F
И согревая сердце добротой
Dm Em F
Тепло огня с молитвой лечит душу

Припев:
F (бой)               Am (перебор)
Гори лампадка ты во славу Божью
F (бой)            Am (щипок)
Гори, гори, не угасай!
G (бой)                    Am(перебор)
Пусть твой огонь никто не потревожит
F (бой) Dm (перебор) Am (щипок)
Теплом молитвы нас спасай

Am Dm Am
Ее теплом согреты на века
Am Dm G 
Теплится огонек и в сердце стылом
Dm Em F
И золотятся в небе облака
Dm Em F
В сиянье звезд, молчании унылом

Am Dm Am
И чувствуешь душой Господь с тобой
Am Dm G 
И слезы утираешь ты украдкой
Dm Em F
Когда в монастыре, что за рекой
Dm Em F
Под образом святым горит лампадка

Припев:
F (бой)               Am (перебор)
Гори лампадка ты во славу Божью
F (бой)            Am (щипок)
Гори, гори, не угасай!
G (бой)                    Am(перебор)
Пусть твой огонь никто не потревожит
F (бой) Dm (перебор) Am (щипок)
Теплом молитвы нас спасай

F (бой)               Am (перебор)
Гори лампадка ты во славу Божью
F (бой)            Am (щипок)
Гори, гори, не угасай!
G (бой)                    Am(перебор)
Пусть твой огонь никто не потревожит
F (бой) Dm (перебор) Am (щипок)
Теплом молитвы нас спасай
F (бой) Dm (перебор) Am (щипок)
…Теплом молитвы нас спасай...
Наверх