Аккорды Джинсы Тарковского - 2020

Добавлено: @romashka
Дата добавления: 22 Февраля 2021г.
Рейтинг:
0.0
Просмотров: 75
Транспонировать - +
C            Am
Я получил в лицо
             F
От твоих друзей
На своём дне рождения
Fm
Я немного в шоке.
       C
Денег нет,
              Am
Наблевал в такси,
            F
Проебал ключи и печень,
          Fm
Оцени теперь мой рейтинг
             C
Ты же не причём,
Ла-ла-ла-ла

Припев:
E||----------------------|------------------------|------------------------| 
B||----------------------|------------------------|------------------------|
G||----------------------|------------------------|------------------------| 
D||----------------------|------------------------|------------------------| 
A||----3----3---3---3---3|--3----3---3---3---3---3|--3---3---3---2--2------|
D||-5----5----4---4---3--|3---2----2---1---1---2--|2---3---3---3--3--------|

Бей сильнее,
бесконтрольно,
В моей крови
алкогольной
Больше нет ни
капли боли,
Только тромбы
от любви
Бей, как в школе бьют за шмотки,
Бей за правду, бей за сотку,
Я набью на подбородке
С твоим именем тату

II куплет
C            Am
Ты пьяная с утра
             F
От своей любви,
Я тупо пьяный в сопли,
Fm
Вновь пытаюсь что-то поменять.
C           Am
Хочешь я начну?
                F
Просто поменяемся местами,
         Fm
Подставляй лицо на раз, два, три,
С
Ори:
Ла-ла-ла-ла

Припев:
E||----------------------|------------------------|------------------------| 
B||----------------------|------------------------|------------------------|
G||----------------------|------------------------|------------------------| 
D||----------------------|------------------------|------------------------| 
A||----3----3---3---3---3|--3----3---3---3---3---3|--3---3---3---2--2------|
D||-5----5----4---4---3--|3---2----2---1---1---2--|2---3---3---3--3--------|

Бей сильнее, бесконтрольно,
В моей крови алкогольной
Больше нет ни капли боли,
Только тромбы от любви
Бей, как в школе бьют за шмотки,
Бей за правду, бей за сотку,
Я набью на подбородке
С твоим именем тату
Наверх