Аккорды Джизус - Девочка в классе

Добавлено: @romashka
Дата добавления: 19 Июня 2019г.
Рейтинг:
0.0
Просмотров: 76
Транспонировать - +
Строй DADBGE

Интро: x2
----------------------------------------------------
----------------------------------------------------
----------------------------------------------------
----9---11--12---12-11-/--9-9------11--------12-14--
---5--7---9----------------------7---------9----12--
-5---7---9-----9---9--9----5-5--7-----7---9---------

Припев: (восьмерка или просто вверх-вниз)
-------------------------
-------------------------
-------------------------
-9------11------12-------
-5-(8х)-7--(8х)-9--(16х)-
-5------7-------9--------

1 куплет: (до крика)
--------------------------------------------------------
--------------------------------------------------------
--------------------------------------------------------
---9-----11-------12---12-11-/--9-9-------11-----12--14-
--5-----7-------9-----------------------7-------9----12-
-5--5--7----7--9-----9--9--9-----5-5---7---7---9--------

Крик:
------------------------------------------------------
------------------------------------------------------
------------------------------------------------------
-9-9----11-11--12-12----12------9-9---11-11---12------
-5-5----7--7----9--9----9--(6х)-5-5---7--7----9--(8х)-
-5-5----7--7----9--9----9-------5-5---7--7----9-------

Припев:
-------------------------
-------------------------
-------------------------
-9------11------12-------
-5-(8х)-7--(8х)-9--(16х)-
-5------7-------9--------

Бридж:
--------------
--------------
--------------
-14--12--9--7-
--------------
--------------

Куплет 2: x4
--------------------------------------------------------
--------------------------------------------------------
--------------------------------------------------------
---9-----11-------12---12-11-/--9-9-------11-----12--14-
--5-----7-------9-----------------------7-------9----12-
-5--5--7----7--9-----9--9--9-----5-5---7---7---9--------

Припев:
-------------------------
-------------------------
-------------------------
-9------11------12-------
-5-(8х)-7--(8х)-9--(16х)-
-5------7-------9--------

Соло: x2
---------------------------------------------------------------
---------------------------------------------------------12-15-
-------14-11------------------------------14-11--------14------
-12-12-------12-12-9--7--12/14/12-----12-12-------12-14--------
---------------------------------------------------------------
---------------------------------------------------------------

Аутро:
--------------------------------------------------
--------------------------------------------------
--------------------------------------------------
-9--11--12----9--11--12----9--11--12---9--11--12--
--------------------------------------------------
--------------------------------------------------
comments powered by Disqus
Наверх