Аккорды «Echobrain»

Echobrain
Echobrain — американская группа, играющая альтернативный метал, основанная Джейсоном Ньюстедом после ухода из Metallica. Echobrain — американская группа, играющая альтернативный метал, основанная Джейсоном Ньюстедом после ухода из Metallica. Скрыть...
Популярные аккорды Echobrain:
алфавиту | просмотрам | случайно
  • Intro: E & C
    
    
    E                          C
    Stone touch so rare in the air,
    E                            C
    Stolen, but still puts up a fight,
    E                       C
    When the day sings вlаsй,
    E…
  • Tuning: Standard
    
    
     E                                           G
    -0--0--x-x-x-x-0-0-0-x-0--0--x-x-x-x-0-0-0-x-3--3--x-x-x-x-3-3-3-x-3--3-|
    -0--0--x-x-x-x-0-0-0-x-0--0--x-x-x-x-0-0-0-x-3--3--x-x-x-x-3-3-3-x-3--3-|
    -1--1--x-x-x-x-1-1-1-x-1--1--x-x-x-x-1-1-1-x-4--4--x-x-x-x-4-4-4-x-4--4-|
    -2--2--x-x-x-x-2-2-2-x-2--2--x-x-x-x-2-2-2-x-5--5--x-x-x-x-5-5-5-x-5--5-|
    -2--2--x-x-x-x-2-2-2-x-2--2--x-x-x-x-2-2-2-x-5--5--x-x-x-x-5-5-5-x-5--5-|
    -0--0--x-x-x-x-0-0-0-x-0--0--x-x-x-x-0-0-0-x-3--3--x-x-x-x-3-3-3-x-3--3-|…
  • Tuning: Standard
    
    
     F  G  A                  F  G  A                  F  G  A
    -0--0--0--0-0-0-0-0-0-0-|-0--0--0--0-0-0-0-0-0-0-|-0--0--0--0-0-0-0-0-0-0-|
    -0--0--0--0-0-0-0-0-0-0-|-0--0--0--0-0-0-0-0-0-0-|-0--0--0--0-0-0-0-0-0-0-|
    -2--4--6--6-6-6-6-6-6-6-|-2--4--6--6-6-6-6-6-6-6-|-2--4--6--6-6-6-6-6-6-6-|
    -3--5--7--7-7-7-7-7-7-7-|-3--5--7--7-7-7-7-7-7-7-|-3--5--7--7-7-7-7-7-7-7-|
    -3--5--7--7-7-7-7-7-7-7-|-3--5--7--7-7-7-7-7-7-7-|-3--5--7--7-7-7-7-7-7-7-|
    -1--3--5--5-5-5-5-5-5-5-|-1--3--5--5-5-5-5-5-5-5-|-1--3--5--5-5-5-5-5-5-5-|…
  • Tuning: 	standard
    
    
      Bm               F#                   E                Em  
    |-2---2---2---2--|-9----9----9----9---|-7---7---7---7--|-7---7---7---7--|
    |-3---3---3---3--|-11---11---11---11--|-9---9---9---9--|-8---8---8---8--|
    |-4---4---4---4--|-11---11---11---11--|-9---9---9---9--|-9---9---9---9--|
    |-4---4---4---4--|-11---11---11---11--|-9---9---9---9--|-9---9---9---9--|
    |-2---2---2---2--|-9----9----9----9---|-7---7---7---7--|-7---7---7---7--|
    |----------------|--------------------|----------------|----------------|…
Наверх