Аккорды «Edguy»

Edguy
Edguy — немецкая группа, играющая в стиле пауэр-метал. Была сформирована в 1992 году. Группа Edguy была основана в 1992 году Тобиасом Замметом, Дирком Зауэром, Йенсом Людвигом и Домиником Шторыхом, которым в то время было по 15 лет. Названием было выбрано прозвище их учителя по математике Эдгара Циммерера, которого называли «Edguy». В 1995 году, после выпуска двух демозаписей, группа получила контракт с лейблом AFM Records. Первые два альбома не имели большого успеха, но с выпуском в 1998… Читать полностью... Edguy — немецкая группа, играющая в стиле пауэр-метал. Была сформирована в 1992 году. Группа Edguy была основана в 1992 году Тобиасом Замметом, Дирком Зауэром, Йенсом Людвигом и Домиником Шторыхом, которым в то время было по 15 лет. Названием было выбрано прозвище их учителя по математике Эдгара Циммерера, которого называли «Edguy». В 1995 году, после выпуска двух демозаписей, группа получила контракт с лейблом AFM Records. Первые два альбома не имели большого успеха, но с выпуском в 1998 году «Vain Glory Opera» группа приобрела достаточно широкую известность, во многом благодаря помощи приглашённого гитариста Тимо Толкки из Stratovarius, который также выполнил роль продюсера, и приглашённого вокалиста Ханси Кюрша из Blind Guardian. В 1999 году группа выпускает Theater of Salvation, через год перезаписывает The Savage Poetry, а в 2001 выходит альбом Mandrake. Параллельно Заммет создаёт рок-оперу Avantasia, в которой приняли участие много приглашённых пауэр-метал-музыкантов. В 2004 году получила контракт с лейблом Nuclear Blast и выпустила свой 6-й полноформатник — Hellfire Club. В 2006 году вышел альбом Rocket Ride. В ноябре 2008 года на Nuclear Blast вышел следующий альбом Edguy «Tinnitus Sanctus», на котором группа добавила больше хард-н-хеви. В 2009 году вышел первый DVD группы «Fucking With F***», с концертом, состоявшимся в 2006 году в Сан-Паулу. 26 августа 2011 года на Nuclear Blast вышел 9-й альбом Age of the Joker. 18 апреля 2014 года вышел альбом Space Police - Defenders of the Crown, достигший 2-й позиции в германских чартах, что является абсолютным рекордом для Edguy. Студийные альбомы Savage Poetry (1995) Kingdom of Madness (1997) Vain Glory Opera (1998) Theater of Salvation (1999) The Savage Poetry (2000) Mandrake (2001) Hellfire Club (2004) Rocket Ride (2006) Tinnitus Sanctus (2008) Age of the Joker (2011) Space Police - Defenders of the Crown (2014) Скрыть...
Популярные аккорды Edguy:
алфавиту | просмотрам | случайно
  • Dm
    City lights are calling
    F
    Slowly coming back to life
    Dm
    Speeding in the fast lane
    F            G
    Mama let us waste no time
    
    Dm
    Devil in the doorway
    F            C
    Selling any kind of hell
    F
    We're just coming out to play…
  • [Intro + verse]
    
       Am              F(add9,maj, maj7) Csus2                 G
    e||----------------3-----1-----0---|----------------------------------|
    B||1-----0-----1-----1-----1-----1-|1-----1-----1h3p1-0-------0-------|
    G||--2-----2-----0-----2-----2-----|--0-----0-----------0---0---0---0-|
    D||----2-----2---------------------|----0-----0-----------0-------0---|
    A||--------------------------------|----------------------------------|
    E||--------------------------------|----------------------------------|…
  • Intro:
    
    no guitar 1st time
    
    e:--------------------------------------------------------------------------------------
    B:--------------------------------------------------------------------------------------
    G:----4--5----------4--5--7------4--5----------4--5--7------7------7------7------7----7-
    D:-2--4--5--5-4--2--4--5--7---2--4--5--5-4--2--4--5--7------7------7------7------7----7-
    A:-2--2--3--5-4--2--2--3--5---2--2--3--5-4--2--2--3--5-5555-5-5555-5-5555-5-5555-5-55-5-
    E:-0--------3-2--0------------0--------3-2--0-------------------------------------------
    
    e:------------
    B:------------
    G:------------
    D:-5--5--5--5-
    A:-5--5--5--5-
    E:-3--3--3--3-
    
    
    verse
    p.m......................................................................
    e:------------------------------------------------------------------------------
    B:------------------------------------------------------------------------------
    G:------------------------------------------------------------------------------
    D:------------------------------------------------------------------------5---5-
    A:------------------------------------------------------------------------------
    E:-111-111--111-111--333-333--333-333--111-111--111-111--333-333--333-333---3---
    
    p.m....................................................…
  • KEYBOARD INTRO    X  4
    
    E|---------------------8------------------------------------8---------------
    ------|
    B|--8--10--11--10--11-----11--10--8------8--10--11--10--11-----11--10--8--10
    ------|
    G|-----------------------------------10-------------------------------------
    --10--|
    D|--------------------------------------------------------------------------
    ------|
    A|--------------------------------------------------------------------------
    ------|
    E|--------------------------------------------------------------------------
    ------|
    
    E|-----------------------------------10--11--8----------|
    B|--8--10------8--10--11--10--8-----------------11--10--|
    G|---------10--------------------10---------------------|
    D|------------------------------------------------------|
    A|------------------------------------------------------|
    E|------------------------------------------------------|
    
    GUITARS…
  • Tablature explanation:
    
    h  = hammer on             .   = Palm mute
    p  = pull off              A.H = Artificial harmonics
    b  = Bend                  pb  = prebend
    rb = release bend          /   = slide
    * = strike the note…
  • All guitars are 1/2 downed
    
    
    [Intro & verse:]
    
    Keyboard:
        Ebm              Cb               Db               Bbm
    eb||----------------|----------------|----------------|----------------|
    Bb||----------------|----------------|----------------|----------------|
    Gb||----------------|----------------|----------------|----------------|
    Db||----------------|----------------|----------------|444-4-444-4-444-|
    Ab||222-2-222-2-222-|222-2-222-2-222-|222-2-222-2-222-|222-2-222-2-222-|
    Eb||000-0-000-0-000-|000-0-000-0-000-|000-0-000-0-000-|----------------|
    p.m…
  • [Intro:]
    
       D5       C5   G5           B5 E5              D5    G5
    e||----|--------|--------|------|----|----------|-----|------|
    B||----|--------|--------|------|----|----------|-----|------|
    G||----|--------|--------|------|----|----------|-----|------|
    D||7---|----9---|--------|------|9---|----------|7----|------|
    A||5---|----7---|7-------|----9-|7---|----------|5----|7-----|
    E||----|--------|5-------|----7-|----|----------|-----|5-----|…
  • Tablature explanation:
    
    h  = hammer on             .   = Palm mute
    p  = pull off              A.H = Artificial harmonics
    b  = Bend                  pb  = prebend
    r  = release bend          s   = slide
    
    All guitars are 1/2…
  • Вступление: Em | C | G D Em D > 2 раза
    
    
    Em
    Oh if only Brazil was not so far
    Em                                C 
    Far away I would swim or walk or ride
         G     D   Em   D   
    But never ever fly
    
    Em
    But all the noise…
  • strings/synth effect     then the guitar comes in...    just before singing 
    e---------------3---3----|-----------------------------|--(skip if you want)-
    B---------------1---0----|-----------------------------|---------------------
    G---4---4---5------------|-----4-------5--------------|---------------------
    D---4---2---5------------|-----4---2---5---5----------|---5x--4x--2x--------
    A---2---2---3---3---2----|-----2---2---3---5----------|---5x--4x--2x--------
    E-------0-------3---3----|----------0-------3----------|---3x--2x--0x--------
    
    
    e----------------------------------------------------------------------------
    B-----------------0------0-------5--5-7--7-8--8-7--5--(2)--------------------
    G--------------5--0---5--0---7-7--------------------------------5x------7----
    D--2x-2x-2x----5--2---5--2---7---------------------------2------5x------7----
    A--2x-2x-2x----3--2---3--2---5---------------------------2------3x...---5x..-
    E--0x-0x-0x----------------------------------------------0-------------------
    and…
  • [Intro:]
    
    e||--------------------------------|--------------------------------|
    B||--------------------------------|--------------------------------|
    G||----9-----7---------------------|----9-----7---------------------|
    D||----------------10--9---7---6---|----------------10--9---7s6-----|
    A||0-0---0-0---0-0---0---0---0-----|0-0---0-0---0-0---0---0-----8-7-|
    E||--------------------------------|--------------------------------|…
  • Intro:
    
    guitar 1
    e:------------------------------------------------------------------------------
    B:------------------------------------------------------------12-11-------------
    G:10-14-12-14-------------------------------------10-14-12-14-------14-12-12A.H-…
  • [Intro:]
    
    |  F  |  C/F  |  A#/F |  C/F  |  F/F  |  C/F  |  A#/F |  C/F  |
    
    
    [Verse1:]
    
    F/C             C            A#/c          C
    Blinded by the fire and the sorrow of the day,
    F                C               A#…
Наверх