Аккорды EIFFEL 65 - Blue (Da Ba Dee)

Добавлено: @romashka
Дата добавления: 11 Июня 2020г.
Рейтинг:
0.0
Просмотров: 53
Транспонировать - +
e|-----------------------------|
B|--------------1--------------|
G|--3----0--3---------2---3----|
D|----0------------3-----------|
A|-----------------------------|
E|-----------------------------|

e|--------------------------------|
B|-----------3---4------3----1----|
G|--0---3-----------0-------------|
D|--------------------------------|
A|--------------------------------|
E|--------------------------------|

e|-----------------------------|
B|--------------1--------------|
G|--3----0--3---------2---3----|
D|----0------------3-----------|
A|-----------------------------|
E|-----------------------------|

e|---------------------------|
B|---------3--4------3--1----|
G|--0--3----------0----------|
D|---------------------------|
A|---------------------------|
E|---------------------------|

e|-----------------------------|
B|--------------1--------------|
G|--3----0--3---------2---3----|
D|----0------------3-----------|
A|-----------------------------|
E|-----------------------------|

e|---------------------------|
B|---------3--4------3--1----|
G|--0--3----------0----------|
D|---------------------------|
A|---------------------------|
E|---------------------------|

e|-----------------------------|
B|-----------------------------|
G|--3----0--3--2----------0----|
D|----0----------------3-------|
A|-----------------3-----------|
E|-----------------------------|

e|--------------------------|
B|--------------------------|
G|--------0---------0--2----|
D|-----3--------3-----------|
A|--1--------3--------------|
E|--------------------------|

e|-----------------------------|
B|--------------1--------------|
G|--3----0--3---------2---3----|
D|----0------------3-----------|
A|-----------------------------|
E|-----------------------------|

e|---------------------------|
B|---------3--4------3--1----|
G|--0--3----------0----------|
D|---------------------------|
A|---------------------------|
E|---------------------------|

e|-----------------------------|
B|--------------1--------------|
G|--3----0--3---------2---3----|
D|----0------------3-----------|
A|-----------------------------|
E|-----------------------------|

e|---------------------------|
B|---------3--4------3--1----|
G|--0--3----------0----------|
D|---------------------------|
A|---------------------------|
E|---------------------------|

e|-----------------------------|
B|--------------1--------------|
G|--3----0--3---------2---3----|
D|----0------------3-----------|
A|-----------------------------|
E|-----------------------------|

e|---------------------------|
B|---------3--4------3--1----|
G|--0--3----------0----------|
D|---------------------------|
A|---------------------------|
E|---------------------------|

e|-----------------------------|
B|-----------------------------|
G|--3----0--3--2----------0----|
D|----0----------------3-------|
A|-----------------3-----------|
E|-----------------------------|

e|-------|
B|-------|
G|--2----|
D|-------|
A|-------|
E|-------|

e|-----------------------------|
B|--------------1--------------|
G|--3----0--3---------2---3----|
D|----0------------3-----------|
A|-----------------------------|
E|-----------------------------|

e|---------------------------|
B|---------3--4------3--1----|
G|--0--3---------------------|
D|---------------------------|
A|---------------------------|
E|---------------------------|

e|-----------------------------|
B|--------------1--------------|
G|--3----0--3---------2---3----|
D|----0------------3-----------|
A|-----------------------------|
E|-----------------------------|

e|---------------------------|
B|---------3--4------3--1----|
G|--0--3---------------------|
D|---------------------------|
A|---------------------------|
E|---------------------------|

e|-----------------------------|
B|--------------1--------------|
G|--3----0--3---------2---3----|
D|-----------------3-----------|
A|-----------------------------|
E|-----------------------------|

e|---------------------------|
B|---------3--4------3--1----|
G|--0--3---------------------|
D|---------------------------|
A|---------------------------|
E|---------------------------|

e|-----------------------------|
B|-----------------------------|
G|--3----0--3--2----------0----|
D|------------------0--3-------|
A|-----------------------------|
E|-----------------------------|

e|-------|
B|-------|
G|--2----|
D|-------|
A|-------|
E|-------|

e|-----------------------------|
B|--------------1--------------|
G|--3----0--3---------2---3----|
D|-----------------3-----------|
A|-----------------------------|
E|-----------------------------|

e|---------------------------|
B|---------3--4------3--1----|
G|--0--3---------------------|
D|---------------------------|
A|---------------------------|
E|---------------------------|

e|-----------------------------|
B|--------------1--------------|
G|--3----0--3---------2---3----|
D|-----------------3-----------|
A|-----------------------------|
E|-----------------------------|

e|---------------------------|
B|---------3--4------3--1----|
G|--0--3---------------------| 
D|---------------------------|
A|---------------------------|
E|---------------------------|

e|-----------------------------|
B|--------------1--------------|
G|--3----0--3---------2---3----|
D|-----------------3-----------|
A|-----------------------------|
E|-----------------------------|

e|---------------------------|
B|---------3--4------3--1----|
G|--0--3---------------------|
D|---------------------------|
A|---------------------------|
E|---------------------------|

e|-----------------------------|
B|-----------------------------|
G|--3----0--3----2--------0----|
D|------------------0--3-------|
A|-----------------------------|
E|-----------------------------|

В конце четыре столба играются x2.
Наверх